999
DXF file: bg_BG-E1531-300BD-215-SS.dxf
999
Pro/ENGINEER 2020414 by Parametric Technology Corporation
  0
SECTION
  2
HEADER
  9
$ACADVER
  1
AC1032
  9
$DWGCODEPAGE
  3
ANSI_1252
  9
$EXTMAX
 10
22.0
 20
17.0
 30
0.0
  9
$EXTMIN
 10
0.0
 20
0.0
 30
0.0
  9
$LIMMIN
 10
0.0
 20
0.0
  9
$LIMMAX
 10
22.0
 20
17.0
  9
$VIEWCTR
 10
11.0
 20
8.5
  9
$VIEWSIZE
 40
17.0
  9
$CLAYER
  8
0
  9
$LTSCALE
 40
1.21
  9
$CELTYPE
  6
BYLAYER
  9
$DIMSCALE
 40
1.0
  9
$DIMASZ
 40
0.1875
  9
$DIMEXO
 40
0.0625
  9
$DIMDLI
 40
0.836
  9
$DIMEXE
 40
0.125
  9
$DIMCEN
 40
0.198
  9
$DIMLFAC
 40
7.0
  9
$DIMBLK
  1
_CLOSED
  9
$DIMALT
 70
0
  9
$DIMALTF
 40
25.4
  9
$DIMTXT
 40
0.15625
  9
$DIMTOL
 70
0
  9
$DIMLIM
 70
0
  9
$DIMTFAC
 40
1.0
  9
$DIMGAP
 40
0.09
  9
$DIMDSEP
 70
46
  9
$AUNITS
 70
0
  9
$PDMODE
 70
3
  9
$PDSIZE
 40
0.3125
  9
$HANDSEED
  5
3B3
  9
$TILEMODE
 70
1
  9
$MEASUREMENT
 70
0
  9
$INSUNITS
 70
1
  0
ENDSEC
  0
SECTION
  2
CLASSES
  0
CLASS
  1
ACDBDICTIONARYWDFLT
  2
AcDbDictionaryWithDefault
  3
AutoCAD 2000
 90
0
 91
1
280
0
281
0
  0
CLASS
  1
ACDBPLACEHOLDER
  2
AcDbPlaceHolder
  3
AutoCAD 2000
 90
0
 91
1
280
0
281
0
  0
CLASS
  1
LAYOUT
  2
AcDbLayout
  3
AutoCAD 2000
 90
0
 91
0
280
0
281
0
  0
ENDSEC
  0
SECTION
  2
TABLES
  0
TABLE
  2
VPORT
  5
8
100
AcDbSymbolTable
 70
2
  0
VPORT
  5
1F4
100
AcDbSymbolTableRecord
100
AcDbViewportTableRecord
  2
*ACTIVE
 70
0
 10
0.0
 20
0.0
 11
1.0
 21
1.0
 12
11.0
 22
8.5
 13
0.0
 23
0.0
 14
1.0
 24
1.0
 15
0.0
 25
0.0
 16
0.0
 26
0.0
 36
1.0
 17
0.0
 27
0.0
 37
0.0
 40
17.0
 41
1.2941176471
 42
50.0
 43
0.0
 44
0.0
 50
0.0
 51
0.0
 71
0
 72
100
 73
1
 74
1
 75
0
 76
0
 77
0
 78
0
  0
ENDTAB
  0
TABLE
  2
LTYPE
  5
5
100
AcDbSymbolTable
 70
6
  0
LTYPE
  5
14
100
AcDbSymbolTableRecord
100
AcDbLinetypeTableRecord
  2
BYBLOCK
 70
0
  3

 72
65
 73
0
 40
0.0
  0
LTYPE
  5
15
100
AcDbSymbolTableRecord
100
AcDbLinetypeTableRecord
  2
BYLAYER
 70
0
  3

 72
65
 73
0
 40
0.0
  0
LTYPE
  5
16
100
AcDbSymbolTableRecord
100
AcDbLinetypeTableRecord
  2
CONTINUOUS
 70
64
  3
Solid line
 72
65
 73
0
 40
0.0
  0
LTYPE
  5
1F5
100
AcDbSymbolTableRecord
100
AcDbLinetypeTableRecord
  2
CENTER
 70
64
  3
____ _ ____ _ ____ _ ____ _ ____ _ ____ _ ____
 72
65
 73
4
 40
0.6
 49
0.375
 74
0
 49
-0.075
 74
0
 49
0.075
 74
0
 49
-0.075
 74
0
  0
LTYPE
  5
1F6
100
AcDbSymbolTableRecord
100
AcDbLinetypeTableRecord
  2
HIDDEN
 70
64
  3
- - - - - - - - - - - - - - - - - - - -
 72
65
 73
2
 40
0.2
 49
0.1
 74
0
 49
-0.1
 74
0
  0
LTYPE
  5
1F7
100
AcDbSymbolTableRecord
100
AcDbLinetypeTableRecord
  2
PHANTOM
 70
64
  3
_____ _ _ _____ _ _ _____ _ _ _____
 72
65
 73
6
 40
0.8
 49
0.45
 74
0
 49
-0.05
 74
0
 49
0.1
 74
0
 49
-0.05
 74
0
 49
0.1
 74
0
 49
-0.05
 74
0
  0
LTYPE
  5
1F8
100
AcDbSymbolTableRecord
100
AcDbLinetypeTableRecord
  2
DOT
 70
64
  3
. . . . . . . . . . . . . . . . . . . .
 72
65
 73
2
 40
0.2
 49
0.1
 74
0
 49
-0.1
 74
0
  0
LTYPE
  5
1F9
100
AcDbSymbolTableRecord
100
AcDbLinetypeTableRecord
  2
DASHED
 70
64
  3
- - - - - - - - - - - - - - - - - - - -
 72
65
 73
2
 40
0.2
 49
0.1
 74
0
 49
-0.1
 74
0
  0
ENDTAB
  0
TABLE
  2
LAYER
  5
2
100
AcDbSymbolTable
 70
36
  0
LAYER
  5
10
100
AcDbSymbolTableRecord
100
AcDbLayerTableRecord
  2
0
 70
0
 62
7
  6
CONTINUOUS
370
-3
390
F
  0
LAYER
  5
1FA
100
AcDbSymbolTableRecord
100
AcDbLayerTableRecord
  2
DEFAULT_1
 70
0
 62
7
  6
CENTER
370
-3
390
F
  0
LAYER
  5
1FB
100
AcDbSymbolTableRecord
100
AcDbLayerTableRecord
  2
DEFAULT_2
 70
0
 62
7
  6
HIDDEN
370
-3
390
F
  0
LAYER
  5
1FC
100
AcDbSymbolTableRecord
100
AcDbLayerTableRecord
  2
DEFAULT_3
 70
0
 62
7
  6
PHANTOM
370
-3
390
F
  0
LAYER
  5
1FD
100
AcDbSymbolTableRecord
100
AcDbLayerTableRecord
  2
01_ALL_DTM_PLN
 70
0
 62
7
  6
CONTINUOUS
370
-3
390
F
  0
LAYER
  5
1FE
100
AcDbSymbolTableRecord
100
AcDbLayerTableRecord
  2
01__ASM_ALL_DTM_PLN
 70
0
 62
7
  6
CONTINUOUS
370
-3
390
F
  0
LAYER
  5
1FF
100
AcDbSymbolTableRecord
100
AcDbLayerTableRecord
  2
01__ASM_DEF_DTM_PLN
 70
0
 62
7
  6
CONTINUOUS
370
-3
390
F
  0
LAYER
  5
200
100
AcDbSymbolTableRecord
100
AcDbLayerTableRecord
  2
01___PRT_ALL_DTM_PLN
 70
0
 62
7
  6
CONTINUOUS
370
-3
390
F
  0
LAYER
  5
201
100
AcDbSymbolTableRecord
100
AcDbLayerTableRecord
  2
01___PRT_DEF_DTM_PLN
 70
0
 62
7
  6
CONTINUOUS
370
-3
390
F
  0
LAYER
  5
202
100
AcDbSymbolTableRecord
100
AcDbLayerTableRecord
  2
02_ALL_AXES
 70
0
 62
7
  6
CONTINUOUS
370
-3
390
F
  0
LAYER
  5
203
100
AcDbSymbolTableRecord
100
AcDbLayerTableRecord
  2
02__ASM_ALL_AXES
 70
0
 62
7
  6
CONTINUOUS
370
-3
390
F
  0
LAYER
  5
204
100
AcDbSymbolTableRecord
100
AcDbLayerTableRecord
  2
02___PRT_ALL_AXES
 70
0
 62
7
  6
CONTINUOUS
370
-3
390
F
  0
LAYER
  5
205
100
AcDbSymbolTableRecord
100
AcDbLayerTableRecord
  2
03_ALL_CURVES
 70
0
 62
7
  6
CONTINUOUS
370
-3
390
F
  0
LAYER
  5
206
100
AcDbSymbolTableRecord
100
AcDbLayerTableRecord
  2
03__ASM_ALL_CURVES
 70
0
 62
7
  6
CONTINUOUS
370
-3
390
F
  0
LAYER
  5
207
100
AcDbSymbolTableRecord
100
AcDbLayerTableRecord
  2
03___PRT_ALL_CURVES
 70
0
 62
7
  6
CONTINUOUS
370
-3
390
F
  0
LAYER
  5
208
100
AcDbSymbolTableRecord
100
AcDbLayerTableRecord
  2
04_ALL_DTM_PNT
 70
0
 62
7
  6
CONTINUOUS
370
-3
390
F
  0
LAYER
  5
209
100
AcDbSymbolTableRecord
100
AcDbLayerTableRecord
  2
04__ASM_ALL_DTM_PNT
 70
0
 62
7
  6
CONTINUOUS
370
-3
390
F
  0
LAYER
  5
20A
100
AcDbSymbolTableRecord
100
AcDbLayerTableRecord
  2
04___PRT_ALL_DTM_PNT
 70
0
 62
7
  6
CONTINUOUS
370
-3
390
F
  0
LAYER
  5
20B
100
AcDbSymbolTableRecord
100
AcDbLayerTableRecord
  2
05_ALL_DTM_CSYS
 70
0
 62
7
  6
CONTINUOUS
370
-3
390
F
  0
LAYER
  5
20C
100
AcDbSymbolTableRecord
100
AcDbLayerTableRecord
  2
05__ASM_ALL_DTM_CSYS
 70
0
 62
7
  6
CONTINUOUS
370
-3
390
F
  0
LAYER
  5
20D
100
AcDbSymbolTableRecord
100
AcDbLayerTableRecord
  2
05__ASM_DEF_DTM_CSYS
 70
0
 62
7
  6
CONTINUOUS
370
-3
390
F
  0
LAYER
  5
20E
100
AcDbSymbolTableRecord
100
AcDbLayerTableRecord
  2
05___PRT_ALL_DTM_CSYS
 70
0
 62
7
  6
CONTINUOUS
370
-3
390
F
  0
LAYER
  5
20F
100
AcDbSymbolTableRecord
100
AcDbLayerTableRecord
  2
05___PRT_DEF_DTM_CSYS
 70
0
 62
7
  6
CONTINUOUS
370
-3
390
F
  0
LAYER
  5
210
100
AcDbSymbolTableRecord
100
AcDbLayerTableRecord
  2
06_ALL_SURFS
 70
0
 62
7
  6
CONTINUOUS
370
-3
390
F
  0
LAYER
  5
211
100
AcDbSymbolTableRecord
100
AcDbLayerTableRecord
  2
06__ASM_ALL_SURFS
 70
0
 62
7
  6
CONTINUOUS
370
-3
390
F
  0
LAYER
  5
212
100
AcDbSymbolTableRecord
100
AcDbLayerTableRecord
  2
06___PRT_ALL_SURFS
 70
0
 62
7
  6
CONTINUOUS
370
-3
390
F
  0
LAYER
  5
213
100
AcDbSymbolTableRecord
100
AcDbLayerTableRecord
  2
07__ASM_ALL_SKELETONS
 70
0
 62
7
  6
CONTINUOUS
370
-3
390
F
  0
LAYER
  5
214
100
AcDbSymbolTableRecord
100
AcDbLayerTableRecord
  2
DTM
 70
0
 62
7
  6
CONTINUOUS
370
-3
390
F
  0
LAYER
  5
215
100
AcDbSymbolTableRecord
100
AcDbLayerTableRecord
  2
HIDE
 70
0
 62
7
  6
CONTINUOUS
370
-3
390
F
  0
ENDTAB
  0
TABLE
  2
STYLE
  5
3
100
AcDbSymbolTable
 70
1
  0
STYLE
  5
11
100
AcDbSymbolTableRecord
100
AcDbTextStyleTableRecord
  2
STANDARD
 70
0
 40
0.0
 41
0.8
 50
0.0
 71
0
 42
0.2
  3
SIMPLEX.SHX
  4

  0
STYLE
  5
216
100
AcDbSymbolTableRecord
100
AcDbTextStyleTableRecord
  2
TEXTSTYLE_1
 70
0
 40
0.0
 41
0.8
 50
0.0
 71
0
 42
0.2
  3
gdt
  4

  0
ENDTAB
  0
TABLE
  2
VIEW
  5
6
100
AcDbSymbolTable
 70
0
  0
ENDTAB
  0
TABLE
  2
UCS
  5
7
100
AcDbSymbolTable
 70
0
  0
ENDTAB
  0
TABLE
  2
APPID
  5
9
100
AcDbSymbolTable
 70
1
  0
APPID
  5
217
100
AcDbSymbolTableRecord
100
AcDbRegAppTableRecord
  2
ACAD
 70
0
  0
ENDTAB
  0
TABLE
  2
BLOCK_RECORD
  5
1
100
AcDbSymbolTable
 70
0
  0
BLOCK_RECORD
  5
218
100
AcDbSymbolTableRecord
100
AcDbBlockTableRecord
  2
*Model_Space
  0
BLOCK_RECORD
  5
219
100
AcDbSymbolTableRecord
100
AcDbBlockTableRecord
  2
*Paper_Space
  0
BLOCK_RECORD
  5
21A
100
AcDbSymbolTableRecord
100
AcDbBlockTableRecord
  2
_CLOSED
  0
ENDTAB
  0
TABLE
  2
DIMSTYLE
  5
A
100
AcDbSymbolTable
 70
1
100
AcDbDimStyleTable
 71
0
  0
DIMSTYLE
105
21B
100
AcDbSymbolTableRecord
100
AcDbDimStyleTableRecord
  2
STANDARD
 70
0
  3

  4

 40
1.0
 41
0.1875
 42
0.0625
 43
0.38
 44
0.125
 45
0.0
 46
0.0
 47
0.0001
 48
0.0001
140
0.15625
141
0.09
142
0.0
143
25.4
144
1.0
145
0.0
146
1.0
147
0.09
 71
0
 72
0
 73
1
 74
1
 75
0
 76
0
 77
0
 78
4
 79
1
170
0
171
3
172
0
173
0
174
0
175
0
176
0
177
0
178
0
270
2
179
4
271
4
272
4
273
2
274
2
275
0
280
0
281
0
282
0
283
1
284
4
285
0
286
0
287
3
288
0
340
11
278
46
341
21A
342
21A
343
21A
344
21A
  0
ENDTAB
  0
ENDSEC
  0
SECTION
  2
BLOCKS
  0
BLOCK
  5
20
100
AcDbEntity
  8
0
100
AcDbBlockBegin
  2
*Model_Space
 70
0
 10
0.0
 20
0.0
 30
0.0
  3
*Model_Space
  1

  0
ENDBLK
  5
21
100
AcDbEntity
  8
0
100
AcDbBlockEnd
  0
BLOCK
  5
1C
100
AcDbEntity
  8
0
100
AcDbBlockBegin
  2
*Paper_Space
 70
0
 10
0.0
 20
0.0
 30
0.0
  3
*Paper_Space
  1

  0
ENDBLK
  5
1D
100
AcDbEntity
  8
0
100
AcDbBlockEnd
  0
BLOCK
  5
21C
100
AcDbEntity
  8
0
100
AcDbBlockBegin
  2
_CLOSED
 70
64
 10
0.0
 20
0.0
  3
_CLOSED
  1

  0
LINE
  5
21D
100
AcDbEntity
  8
0
  6
BYBLOCK
 62
0
100
AcDbLine
 10
0.0
 20
0.0
 11
-1.0
 21
0.1666666667
  0
LINE
  5
21E
100
AcDbEntity
  8
0
  6
BYBLOCK
 62
0
100
AcDbLine
 10
-1.0
 20
0.1666666667
 11
-1.0
 21
-0.1666666667
  0
LINE
  5
21F
100
AcDbEntity
  8
0
  6
BYBLOCK
 62
0
100
AcDbLine
 10
-1.0
 20
-0.1666666667
 11
0.0
 21
0.0
  0
LINE
  5
220
100
AcDbEntity
  8
0
  6
BYBLOCK
 62
0
100
AcDbLine
 10
-1.0
 20
0.0
 11
0.0
 21
0.0
  0
ENDBLK
  5
221
100
AcDbEntity
  8
0
  6
BYBLOCK
 62
0
100
AcDbBlockEnd
  0
ENDSEC
  0
SECTION
  2
ENTITIES
  0
LINE
  5
222
100
AcDbEntity
  8
0
100
AcDbLine
 62
7
  6
BYLAYER
 10
0.0
 20
0.0
 11
0.0
 21
17.0
  0
LINE
  5
223
100
AcDbEntity
  8
0
100
AcDbLine
 62
7
  6
BYLAYER
 10
0.0
 20
0.0
 11
22.0
 21
0.0
  0
LINE
  5
224
100
AcDbEntity
  8
0
100
AcDbLine
 62
7
  6
BYLAYER
 10
0.0
 20
17.0
 11
22.0
 21
17.0
  0
LINE
  5
225
100
AcDbEntity
  8
0
100
AcDbLine
 62
7
  6
BYLAYER
 10
22.0
 20
0.0
 11
22.0
 21
17.0
  0
LINE
  5
226
100
AcDbEntity
  8
0
100
AcDbLine
 62
7
  6
BYLAYER
 10
3.5357142857
 20
3.5098778571
 11
3.5357142857
 21
4.9196992857
  0
LINE
  5
227
100
AcDbEntity
  8
0
100
AcDbLine
 62
7
  6
BYLAYER
 10
3.6285714286
 20
3.4851723054
 11
3.6285714286
 21
5.0540742857
  0
LINE
  5
228
100
AcDbEntity
  8
0
100
AcDbLine
 62
7
  6
BYLAYER
 10
4.2767142857
 20
3.499428666
 11
4.2767142857
 21
3.4647885714
  0
LINE
  5
229
100
AcDbEntity
  8
0
100
AcDbLine
 62
7
  6
BYLAYER
 10
7.1586791584
 20
3.7400443987
 11
7.3228571429
 21
3.7840357571
  0
LINE
  5
22A
100
AcDbEntity
  8
0
100
AcDbLine
 62
7
  6
BYLAYER
 10
4.7231428571
 20
4.4524647445
 11
4.7231428571
 21
3.9771123984
  0
LINE
  5
22B
100
AcDbEntity
  8
0
100
AcDbLine
 62
7
  6
BYLAYER
 10
4.741
 20
4.0362171429
 11
4.741
 21
4.39336
  0
LINE
  5
22C
100
AcDbEntity
  8
0
100
AcDbLine
 62
7
  6
BYLAYER
 10
4.2767142857
 20
3.4647885714
 11
5.5624285714
 21
3.4647885714
  0
LINE
  5
22D
100
AcDbEntity
  8
0
100
AcDbLine
 62
7
  6
BYLAYER
 10
3.6285714286
 20
3.4851723054
 11
4.2767142857
 21
3.4851723054
  0
LINE
  5
22E
100
AcDbEntity
  8
0
100
AcDbLine
 62
7
  6
BYLAYER
 10
5.5624285714
 20
3.4851723054
 11
5.6918928571
 21
3.4851723054
  0
LINE
  5
22F
100
AcDbEntity
  8
0
100
AcDbLine
 62
7
  6
BYLAYER
 10
4.2767142857
 20
3.4919314286
 11
5.5624285714
 21
3.4919314286
  0
LINE
  5
230
100
AcDbEntity
  8
0
100
AcDbLine
 62
7
  6
BYLAYER
 10
4.2767142857
 20
3.499428666
 11
5.5624285714
 21
3.499428666
  0
LINE
  5
231
100
AcDbEntity
  8
0
100
AcDbLine
 62
7
  6
BYLAYER
 10
5.9195714286
 20
3.5005028571
 11
5.6918928571
 21
3.5005028571
  0
LINE
  5
232
100
AcDbEntity
  8
0
100
AcDbLine
 62
7
  6
BYLAYER
 10
3.5363321928
 20
3.5005028571
 11
3.6285714286
 21
3.5005028571
  0
LINE
  5
233
100
AcDbEntity
  8
0
100
AcDbLine
 62
7
  6
BYLAYER
 10
7.4642857143
 20
3.5719314286
 11
7.3228571429
 21
3.5719314286
  0
LINE
  5
234
100
AcDbEntity
  8
0
100
AcDbLine
 62
7
  6
BYLAYER
 10
6.5753427487
 20
3.3304331848
 11
6.5222857143
 21
3.3397885714
  0
LINE
  5
235
100
AcDbEntity
  8
0
100
AcDbLine
 62
7
  6
BYLAYER
 10
6.937202318
 20
3.2666275795
 11
6.9797304731
 21
3.2591287183
  0
LINE
  5
236
100
AcDbEntity
  8
0
100
AcDbLine
 62
7
  6
BYLAYER
 10
6.5222857169
 20
3.4522885714
 11
5.9195714286
 21
3.5585385714
  0
LINE
  5
237
100
AcDbEntity
  8
0
100
AcDbLine
 62
7
  6
BYLAYER
 10
5.0981428571
 20
4.39336
 11
5.0981428571
 21
4.0362171429
  0
LINE
  5
238
100
AcDbEntity
  8
0
100
AcDbLine
 62
7
  6
BYLAYER
 10
5.116
 20
4.4524647445
 11
5.116
 21
3.9771123984
  0
LINE
  5
239
100
AcDbEntity
  8
0
100
AcDbLine
 62
7
  6
BYLAYER
 10
5.9949107146
 20
3.8335385714
 11
6.4469464308
 21
3.8335385714
  0
LINE
  5
23A
100
AcDbEntity
  8
0
100
AcDbLine
 62
7
  6
BYLAYER
 10
4.7231428571
 20
3.9771123984
 11
5.116
 21
3.9771123984
  0
LINE
  5
23B
100
AcDbEntity
  8
0
100
AcDbLine
 62
7
  6
BYLAYER
 10
4.7231428571
 20
4.0005028571
 11
5.116
 21
4.0005028571
  0
LINE
  5
23C
100
AcDbEntity
  8
0
100
AcDbLine
 62
7
  6
BYLAYER
 10
6.4469464308
 20
4.1076457143
 11
5.9949107146
 21
4.1076457143
  0
LINE
  5
23D
100
AcDbEntity
  8
0
100
AcDbLine
 62
7
  6
BYLAYER
 10
5.5624285714
 20
3.499428666
 11
5.5624285714
 21
3.4647885714
  0
LINE
  5
23E
100
AcDbEntity
  8
0
100
AcDbLine
 62
7
  6
BYLAYER
 10
6.4469464308
 20
4.3219314286
 11
5.9949107146
 21
4.3219314286
  0
LINE
  5
23F
100
AcDbEntity
  8
0
100
AcDbLine
 62
7
  6
BYLAYER
 10
5.6918928571
 20
5.0540742857
 11
5.6918928571
 21
3.4851723054
  0
LINE
  5
240
100
AcDbEntity
  8
0
100
AcDbLine
 62
7
  6
BYLAYER
 10
5.78475
 20
3.5005028571
 11
5.78475
 21
4.9911278571
  0
LINE
  5
241
100
AcDbEntity
  8
0
100
AcDbLine
 62
7
  6
BYLAYER
 10
4.7767142857
 20
4.4290742857
 11
5.0624285714
 21
4.4290742857
  0
LINE
  5
242
100
AcDbEntity
  8
0
100
AcDbLine
 62
7
  6
BYLAYER
 10
4.7231428571
 20
4.4524647445
 11
5.116
 21
4.4524647445
  0
LINE
  5
243
100
AcDbEntity
  8
0
100
AcDbLine
 62
7
  6
BYLAYER
 10
5.8267142857
 20
3.5005028571
 11
5.8267142857
 21
4.9491635714
  0
LINE
  5
244
100
AcDbEntity
  8
0
100
AcDbLine
 62
7
  6
BYLAYER
 10
5.9195714286
 20
4.9491635714
 11
5.9195714286
 21
3.5005028571
  0
LINE
  5
245
100
AcDbEntity
  8
0
100
AcDbLine
 62
7
  6
BYLAYER
 10
5.9949107146
 20
4.5960385714
 11
6.4469464308
 21
4.5960385714
  0
LINE
  5
246
100
AcDbEntity
  8
0
100
AcDbLine
 62
7
  6
BYLAYER
 10
5.9949107146
 20
4.5960385714
 11
5.9949107146
 21
3.8335385714
  0
LINE
  5
247
100
AcDbEntity
  8
0
100
AcDbLine
 62
7
  6
BYLAYER
 10
6.5222857169
 20
4.9772885714
 11
5.9195714286
 21
4.8710385714
  0
LINE
  5
248
100
AcDbEntity
  8
0
100
AcDbLine
 62
7
  6
BYLAYER
 10
7.4642857143
 20
4.8576457143
 11
7.3228571429
 21
4.8576457143
  0
LINE
  5
249
100
AcDbEntity
  8
0
100
AcDbLine
 62
7
  6
BYLAYER
 10
6.25
 20
5.2862171429
 11
6.25
 21
5.1705028568
  0
LINE
  5
24A
100
AcDbEntity
  8
0
100
AcDbLine
 62
7
  6
BYLAYER
 10
6.9797304731
 20
5.1704484246
 11
6.5222857143
 21
5.0897885714
  0
LINE
  5
24B
100
AcDbEntity
  8
0
100
AcDbLine
 62
7
  6
BYLAYER
 10
5.9195714286
 20
4.9491635714
 11
5.8267142857
 21
4.9491635714
  0
LINE
  5
24C
100
AcDbEntity
  8
0
100
AcDbLine
 62
7
  6
BYLAYER
 10
5.78475
 20
4.9911278571
 11
5.6918928571
 21
4.9911278571
  0
LINE
  5
24D
100
AcDbEntity
  8
0
100
AcDbLine
 62
7
  6
BYLAYER
 10
3.6285714286
 20
4.9911278571
 11
3.6071428571
 21
4.9911278571
  0
LINE
  5
24E
100
AcDbEntity
  8
0
100
AcDbLine
 62
7
  6
BYLAYER
 10
5.8267142857
 20
4.9491635714
 11
5.78475
 21
4.9911278571
  0
LINE
  5
24F
100
AcDbEntity
  8
0
100
AcDbLine
 62
7
  6
BYLAYER
 10
3.6285714286
 20
5.0540742857
 11
5.6918928571
 21
5.0540742857
  0
LINE
  5
250
100
AcDbEntity
  8
0
100
AcDbLine
 62
7
  6
BYLAYER
 10
7.1586791584
 20
4.6895327441
 11
7.3228571429
 21
4.6455413858
  0
LINE
  5
251
100
AcDbEntity
  8
0
100
AcDbLine
 62
7
  6
BYLAYER
 10
6.4469464308
 20
4.5960385714
 11
6.4469464308
 21
3.8335385714
  0
LINE
  5
252
100
AcDbEntity
  8
0
100
AcDbLine
 62
7
  6
BYLAYER
 10
6.5222857143
 20
5.0897885714
 11
6.5222857143
 21
3.3397885714
  0
LINE
  5
253
100
AcDbEntity
  8
0
100
AcDbLine
 62
7
  6
BYLAYER
 10
6.5357142857
 20
5.1282451444
 11
6.5357142857
 21
5.0921563909
  0
LINE
  5
254
100
AcDbEntity
  8
0
100
AcDbLine
 62
7
  6
BYLAYER
 10
7.3214285714
 20
5.1705028568
 11
7.0067853595
 21
5.1705028568
  0
LINE
  5
255
100
AcDbEntity
  8
0
100
AcDbLine
 62
7
  6
BYLAYER
 10
6.25
 20
5.1705028568
 11
6.9797304731
 21
5.1705028568
  0
LINE
  5
256
100
AcDbEntity
  8
0
100
AcDbLine
 62
7
  6
BYLAYER
 10
6.25
 20
5.2862171429
 11
7.3214285714
 21
5.2862171429
  0
LINE
  5
257
100
AcDbEntity
  8
0
100
AcDbLine
 62
7
  6
BYLAYER
 10
6.5753427487
 20
3.3304331848
 11
6.5753427487
 21
4.2147885714
  0
LINE
  5
258
100
AcDbEntity
  8
0
100
AcDbLine
 62
7
  6
BYLAYER
 10
6.937202318
 20
3.2666275795
 11
6.937202318
 21
4.2147885714
  0
LINE
  5
259
100
AcDbEntity
  8
0
100
AcDbLine
 62
7
  6
BYLAYER
 10
7.0758571429
 20
5.0897885714
 11
7.0758571429
 21
3.3397885714
  0
LINE
  5
25A
100
AcDbEntity
  8
0
100
AcDbLine
 62
7
  6
BYLAYER
 10
7.3214285714
 20
5.2862171429
 11
7.3214285714
 21
5.1705028568
  0
LINE
  5
25B
100
AcDbEntity
  8
0
100
AcDbLine
 62
7
  6
BYLAYER
 10
7.3228571429
 20
4.8576457143
 11
7.3228571429
 21
3.5719314286
  0
LINE
  5
25C
100
AcDbEntity
  8
0
100
AcDbLine
 62
7
  6
BYLAYER
 10
7.4642857143
 20
4.8576457143
 11
7.4642857143
 21
3.5719314286
  0
LINE
  5
25D
100
AcDbEntity
  8
0
100
AcDbLine
 62
7
  6
BYLAYER
 10
3.5357142857
 20
12.1072733047
 11
3.5357142857
 21
13.5170784096
  0
LINE
  5
25E
100
AcDbEntity
  8
0
100
AcDbLine
 62
7
  6
BYLAYER
 10
3.6285714286
 20
11.9728901442
 11
3.6285714286
 21
13.65146157
  0
LINE
  5
25F
100
AcDbEntity
  8
0
100
AcDbLine
 62
7
  6
BYLAYER
 10
4.7767142857
 20
11.2764615714
 11
5.0624285714
 21
11.2764615714
  0
LINE
  5
260
100
AcDbEntity
  8
0
100
AcDbLine
 62
7
  6
BYLAYER
 10
4.7231428571
 20
11.3121758571
 11
4.741
 21
11.3121758571
  0
LINE
  5
261
100
AcDbEntity
  8
0
100
AcDbLine
 62
7
  6
BYLAYER
 10
5.0981428571
 20
11.3121758571
 11
5.116
 21
11.3121758571
  0
LINE
  5
262
100
AcDbEntity
  8
0
100
AcDbLine
 62
7
  6
BYLAYER
 10
7.3228571429
 20
12.3814230428
 11
7.1586791584
 21
12.3374316844
  0
LINE
  5
263
100
AcDbEntity
  8
0
100
AcDbLine
 62
7
  6
BYLAYER
 10
4.7767142857
 20
11.9231375268
 11
5.0624285714
 21
11.9231375268
  0
LINE
  5
264
100
AcDbEntity
  8
0
100
AcDbLine
 62
7
  6
BYLAYER
 10
4.7231428571
 20
11.9728901429
 11
4.7231428571
 21
11.3121758571
  0
LINE
  5
265
100
AcDbEntity
  8
0
100
AcDbLine
 62
7
  6
BYLAYER
 10
4.741
 20
11.9921071069
 11
4.741
 21
11.9728901429
  0
LINE
  5
266
100
AcDbEntity
  8
0
100
AcDbLine
 62
7
  6
BYLAYER
 10
4.741
 20
11.8722240543
 11
4.741
 21
11.3121758571
  0
LINE
  5
267
100
AcDbEntity
  8
0
100
AcDbLine
 62
7
  6
BYLAYER
 10
4.7231428571
 20
11.9564824322
 11
5.116
 21
11.9564824322
  0
LINE
  5
268
100
AcDbEntity
  8
0
100
AcDbLine
 62
7
  6
BYLAYER
 10
3.6285714286
 20
11.9728901429
 11
5.6918928571
 21
11.9728901429
  0
LINE
  5
269
100
AcDbEntity
  8
0
100
AcDbLine
 62
7
  6
BYLAYER
 10
4.7767142857
 20
12.0007067309
 11
5.0624285714
 21
12.0007067309
  0
LINE
  5
26A
100
AcDbEntity
  8
0
100
AcDbLine
 62
7
  6
BYLAYER
 10
5.78475
 20
12.0358365714
 11
5.6918928571
 21
12.0358365714
  0
LINE
  5
26B
100
AcDbEntity
  8
0
100
AcDbLine
 62
7
  6
BYLAYER
 10
3.6285714286
 20
12.0358365714
 11
3.6071428571
 21
12.0358365714
  0
LINE
  5
26C
100
AcDbEntity
  8
0
100
AcDbLine
 62
7
  6
BYLAYER
 10
5.9195714286
 20
12.0778008571
 11
5.8267142857
 21
12.0778008571
  0
LINE
  5
26D
100
AcDbEntity
  8
0
100
AcDbLine
 62
7
  6
BYLAYER
 10
7.3228571429
 20
12.1693187143
 11
7.4642857143
 21
12.1693187143
  0
LINE
  5
26E
100
AcDbEntity
  8
0
100
AcDbLine
 62
7
  6
BYLAYER
 10
6.5222857143
 20
11.9371758571
 11
6.5753427487
 21
11.9278204705
  0
LINE
  5
26F
100
AcDbEntity
  8
0
100
AcDbLine
 62
7
  6
BYLAYER
 10
6.937202318
 20
11.8640148652
 11
6.9797304731
 21
11.856516004
  0
LINE
  5
270
100
AcDbEntity
  8
0
100
AcDbLine
 62
7
  6
BYLAYER
 10
5.9195714286
 20
12.1559258571
 11
5.9949107146
 21
12.1426446071
  0
LINE
  5
271
100
AcDbEntity
  8
0
100
AcDbLine
 62
7
  6
BYLAYER
 10
6.4469464308
 20
12.0629571071
 11
6.5222857169
 21
12.0496758571
  0
LINE
  5
272
100
AcDbEntity
  8
0
100
AcDbLine
 62
7
  6
BYLAYER
 10
5.0981428571
 20
11.3121758571
 11
5.0981428571
 21
11.8722240543
  0
LINE
  5
273
100
AcDbEntity
  8
0
100
AcDbLine
 62
7
  6
BYLAYER
 10
5.0981428571
 20
11.9728901429
 11
5.0981428571
 21
11.9921071069
  0
LINE
  5
274
100
AcDbEntity
  8
0
100
AcDbLine
 62
7
  6
BYLAYER
 10
5.116
 20
11.9728901429
 11
5.116
 21
11.3121758571
  0
LINE
  5
275
100
AcDbEntity
  8
0
100
AcDbLine
 62
7
  6
BYLAYER
 10
5.6918928571
 20
13.65146157
 11
5.6918928571
 21
11.9728901442
  0
LINE
  5
276
100
AcDbEntity
  8
0
100
AcDbLine
 62
7
  6
BYLAYER
 10
5.78475
 20
12.0358365714
 11
5.78475
 21
13.5885151429
  0
LINE
  5
277
100
AcDbEntity
  8
0
100
AcDbLine
 62
7
  6
BYLAYER
 10
5.8267142857
 20
12.0778008571
 11
5.8267142857
 21
13.5465508571
  0
LINE
  5
278
100
AcDbEntity
  8
0
100
AcDbLine
 62
7
  6
BYLAYER
 10
5.9195714286
 20
13.5465508571
 11
5.9195714286
 21
12.0778008571
  0
LINE
  5
279
100
AcDbEntity
  8
0
100
AcDbLine
 62
7
  6
BYLAYER
 10
5.9949107146
 20
13.4817071071
 11
5.9949107146
 21
13.3625580264
  0
LINE
  5
27A
100
AcDbEntity
  8
0
100
AcDbLine
 62
7
  6
BYLAYER
 10
5.9949107146
 20
12.2617936879
 11
5.9949107146
 21
12.1426446071
  0
LINE
  5
27B
100
AcDbEntity
  8
0
100
AcDbLine
 62
7
  6
BYLAYER
 10
5.9195714286
 20
13.4684258571
 11
5.9949107146
 21
13.4817071071
  0
LINE
  5
27C
100
AcDbEntity
  8
0
100
AcDbLine
 62
7
  6
BYLAYER
 10
5.8267142857
 20
12.0778008571
 11
5.78475
 21
12.0358365714
  0
LINE
  5
27D
100
AcDbEntity
  8
0
100
AcDbLine
 62
7
  6
BYLAYER
 10
7.3228571429
 20
13.455033
 11
7.4642857143
 21
13.455033
  0
LINE
  5
27E
100
AcDbEntity
  8
0
100
AcDbLine
 62
7
  6
BYLAYER
 10
5.9195714286
 20
13.5465508571
 11
5.8267142857
 21
13.5465508571
  0
LINE
  5
27F
100
AcDbEntity
  8
0
100
AcDbLine
 62
7
  6
BYLAYER
 10
5.78475
 20
13.5885151429
 11
5.6918928571
 21
13.5885151429
  0
LINE
  5
280
100
AcDbEntity
  8
0
100
AcDbLine
 62
7
  6
BYLAYER
 10
3.6285714286
 20
13.5885151429
 11
3.6071428571
 21
13.5885151429
  0
LINE
  5
281
100
AcDbEntity
  8
0
100
AcDbLine
 62
7
  6
BYLAYER
 10
5.8267142857
 20
13.5465508571
 11
5.78475
 21
13.5885151429
  0
LINE
  5
282
100
AcDbEntity
  8
0
100
AcDbLine
 62
7
  6
BYLAYER
 10
6.4469464308
 20
12.1672129335
 11
6.4469464308
 21
12.0629571071
  0
LINE
  5
283
100
AcDbEntity
  8
0
100
AcDbLine
 62
7
  6
BYLAYER
 10
3.6285714286
 20
13.6514615714
 11
5.6918928571
 21
13.6514615714
  0
LINE
  5
284
100
AcDbEntity
  8
0
100
AcDbLine
 62
7
  6
BYLAYER
 10
7.3228571429
 20
13.2429286715
 11
7.1586791584
 21
13.2869200299
  0
LINE
  5
285
100
AcDbEntity
  8
0
100
AcDbLine
 62
7
  6
BYLAYER
 10
6.5222857143
 20
13.4207857643
 11
6.5222857143
 21
13.3489029947
  0
LINE
  5
286
100
AcDbEntity
  8
0
100
AcDbLine
 62
7
  6
BYLAYER
 10
6.5222857143
 20
13.221643992
 11
6.5222857143
 21
11.9371758571
  0
LINE
  5
287
100
AcDbEntity
  8
0
100
AcDbLine
 62
7
  6
BYLAYER
 10
7.0758571429
 20
13.4367213354
 11
7.0758571429
 21
13.3329674236
  0
LINE
  5
288
100
AcDbEntity
  8
0
100
AcDbLine
 62
7
  6
BYLAYER
 10
7.0758571429
 20
13.2381533127
 11
7.0758571429
 21
11.9371758571
  0
LINE
  5
289
100
AcDbEntity
  8
0
100
AcDbLine
 62
7
  6
BYLAYER
 10
7.3228571429
 20
12.1693187143
 11
7.3228571429
 21
13.455033
  0
LINE
  5
28A
100
AcDbEntity
  8
0
100
AcDbLine
 62
7
  6
BYLAYER
 10
7.4642857143
 20
12.1693187143
 11
7.4642857143
 21
13.455033
  0
LINE
  5
28B
100
AcDbEntity
  8
0
100
AcDbLine
 62
7
  6
BYLAYER
 10
15.0264285714
 20
4.394886
 11
15.0264285714
 21
4.0377431429
  0
LINE
  5
28C
100
AcDbEntity
  8
0
100
AcDbLine
 62
7
  6
BYLAYER
 10
15.0621428571
 20
4.0020288571
 11
15.0785505678
 21
3.9786383984
  0
LINE
  5
28D
100
AcDbEntity
  8
0
100
AcDbLine
 62
7
  6
BYLAYER
 10
15.7942857143
 20
3.4934574286
 11
15.7942857143
 21
3.4663145714
  0
LINE
  5
28E
100
AcDbEntity
  8
0
100
AcDbLine
 62
7
  6
BYLAYER
 10
15.7942857143
 20
3.4663145714
 11
15.9024725671
 21
3.4663145714
  0
LINE
  5
28F
100
AcDbEntity
  8
0
100
AcDbLine
 62
7
  6
BYLAYER
 10
17.2218152351
 20
3.4663145714
 11
17.33
 21
3.4663145714
  0
LINE
  5
290
100
AcDbEntity
  8
0
100
AcDbLine
 62
7
  6
BYLAYER
 10
17.33
 20
3.4934574286
 11
17.2514887339
 21
3.4934574286
  0
LINE
  5
291
100
AcDbEntity
  8
0
100
AcDbLine
 62
7
  6
BYLAYER
 10
15.872818751
 20
3.4934574286
 11
15.7942857143
 21
3.4934574286
  0
LINE
  5
292
100
AcDbEntity
  8
0
100
AcDbLine
 62
7
  6
BYLAYER
 10
15.5748519228
 20
4.3616790081
 11
15.0621428571
 21
4.0020288571
  0
LINE
  5
293
100
AcDbEntity
  8
0
100
AcDbLine
 62
7
  6
BYLAYER
 10
15.0785505678
 20
3.9786383984
 11
15.5696866197
 21
4.3231557222
  0
LINE
  5
294
100
AcDbEntity
  8
0
100
AcDbLine
 62
7
  6
BYLAYER
 10
15.5861138654
 20
4.0020288571
 11
15.1118954732
 21
4.0020288571
  0
LINE
  5
295
100
AcDbEntity
  8
0
100
AcDbLine
 62
7
  6
BYLAYER
 10
15.0621428571
 20
4.4306002857
 11
15.5887474299
 21
4.4306002857
  0
LINE
  5
296
100
AcDbEntity
  8
0
100
AcDbLine
 62
7
  6
BYLAYER
 10
16.9021428571
 20
5.1720288568
 11
16.9021428571
 21
5.2877431429
  0
LINE
  5
297
100
AcDbEntity
  8
0
100
AcDbLine
 62
7
  6
BYLAYER
 10
17.1878571429
 20
5.1297711444
 11
17.1878571429
 21
4.9402396349
  0
LINE
  5
298
100
AcDbEntity
  8
0
100
AcDbLine
 62
7
  6
BYLAYER
 10
17.33
 20
3.4663145714
 11
17.33
 21
3.4934574286
  0
LINE
  5
299
100
AcDbEntity
  8
0
100
AcDbLine
 62
7
  6
BYLAYER
 10
17.9735714286
 20
5.1720288568
 11
16.9021428571
 21
5.1720288568
  0
LINE
  5
29A
100
AcDbEntity
  8
0
100
AcDbLine
 62
7
  6
BYLAYER
 10
17.9735714286
 20
5.2877431429
 11
16.9021428571
 21
5.2877431429
  0
LINE
  5
29B
100
AcDbEntity
  8
0
100
AcDbLine
 62
7
  6
BYLAYER
 10
17.6878571429
 20
5.1297711444
 11
17.6878571429
 21
4.5020288571
  0
LINE
  5
29C
100
AcDbEntity
  8
0
100
AcDbLine
 62
7
  6
BYLAYER
 10
17.9735714286
 20
5.1720288568
 11
17.9735714286
 21
5.2877431429
  0
LINE
  5
29D
100
AcDbEntity
  8
0
100
AcDbLine
 62
7
  6
BYLAYER
 10
15.8032494914
 20
11.2033533463
 11
15.5400892074
 21
11.2033533463
  0
LINE
  5
29E
100
AcDbEntity
  8
0
100
AcDbLine
 62
7
  6
BYLAYER
 10
15.5127478299
 20
11.215180135
 11
15.5136159989
 21
11.215180135
  0
LINE
  5
29F
100
AcDbEntity
  8
0
100
AcDbLine
 62
7
  6
BYLAYER
 10
15.8296977223
 20
11.215180135
 11
15.8745932204
 21
11.215180135
  0
LINE
  5
2A0
100
AcDbEntity
  8
0
100
AcDbLine
 62
7
  6
BYLAYER
 10
15.5016410065
 20
11.216867276
 11
15.5122435801
 21
11.216867276
  0
LINE
  5
2A1
100
AcDbEntity
  8
0
100
AcDbLine
 62
7
  6
BYLAYER
 10
15.8310779689
 20
11.216867276
 11
15.863486397
 21
11.216867276
  0
LINE
  5
2A2
100
AcDbEntity
  8
0
100
AcDbLine
 62
7
  6
BYLAYER
 10
15.5016410065
 20
11.216867276
 11
15.5127478299
 21
11.215180135
  0
LINE
  5
2A3
100
AcDbEntity
  8
0
100
AcDbLine
 62
7
  6
BYLAYER
 10
15.863486397
 20
11.216867276
 11
15.8745932204
 21
11.215180135
  0
LINE
  5
2A4
100
AcDbEntity
  8
0
100
AcDbLine
 62
7
  6
BYLAYER
 10
15.5080273626
 20
11.2233339638
 11
15.3990838388
 21
11.4453375239
  0
LINE
  5
2A5
100
AcDbEntity
  8
0
100
AcDbLine
 62
7
  6
BYLAYER
 10
15.9080904439
 20
11.4573691375
 11
16.6153167561
 21
11.4573691375
  0
LINE
  5
2A6
100
AcDbEntity
  8
0
100
AcDbLine
 62
7
  6
BYLAYER
 10
15.9133043699
 20
11.4742414081
 11
16.6070370483
 21
11.4742414081
  0
LINE
  5
2A7
100
AcDbEntity
  8
0
100
AcDbLine
 62
7
  6
BYLAYER
 10
14.7912073293
 20
11.6857740622
 11
15.4632034372
 21
11.6857740622
  0
LINE
  5
2A8
100
AcDbEntity
  8
0
100
AcDbLine
 62
7
  6
BYLAYER
 10
15.9786729041
 20
11.6857740622
 11
16.6916522153
 21
11.6857740622
  0
LINE
  5
2A9
100
AcDbEntity
  8
0
100
AcDbLine
 62
7
  6
BYLAYER
 10
15.5197386325
 20
12.0025139687
 11
15.5164084523
 21
11.857945554
  0
LINE
  5
2AA
100
AcDbEntity
  8
0
100
AcDbLine
 62
7
  6
BYLAYER
 10
15.502069631
 20
11.2354745445
 11
15.5016410065
 21
11.216867276
  0
LINE
  5
2AB
100
AcDbEntity
  8
0
100
AcDbLine
 62
7
  6
BYLAYER
 10
16.7771793076
 20
11.7487204908
 11
16.6916522153
 21
11.7487204908
  0
LINE
  5
2AC
100
AcDbEntity
  8
0
100
AcDbLine
 62
7
  6
BYLAYER
 10
16.9013580666
 20
11.7906847765
 11
16.8158309743
 21
11.7906847765
  0
LINE
  5
2AD
100
AcDbEntity
  8
0
100
AcDbLine
 62
7
  6
BYLAYER
 10
18.1938698015
 20
11.8822026336
 11
18.324134142
 21
11.8822026336
  0
LINE
  5
2AE
100
AcDbEntity
  8
0
100
AcDbLine
 62
7
  6
BYLAYER
 10
17.8111320478
 20
11.5795372434
 11
17.8500853726
 21
11.5720592494
  0
LINE
  5
2AF
100
AcDbEntity
  8
0
100
AcDbLine
 62
7
  6
BYLAYER
 10
15.5625507989
 20
12.0072622423
 11
15.5610834713
 21
12.0025139687
  0
LINE
  5
2B0
100
AcDbEntity
  8
0
100
AcDbLine
 62
7
  6
BYLAYER
 10
15.538446082
 20
11.9292593498
 11
15.3970235106
 21
11.4716157411
  0
LINE
  5
2B1
100
AcDbEntity
  8
02___PRT_ALL_AXES
100
AcDbLine
 62
7
  6
BYLAYER
 10
18.524766626
 20
12.3244206399
 11
18.5271215092
 21
12.3247719894
  0
LINE
  5
2B2
100
AcDbEntity
  8
0
100
AcDbLine
 62
7
  6
BYLAYER
 10
15.5681445763
 20
11.9618542647
 11
15.8313048603
 21
11.9618542647
  0
LINE
  5
2B3
100
AcDbEntity
  8
0
100
AcDbLine
 62
7
  6
BYLAYER
 10
15.5197386325
 20
12.0025139687
 11
15.881584023
 21
12.0025139687
  0
LINE
  5
2B4
100
AcDbEntity
  8
0
100
AcDbLine
 62
7
  6
BYLAYER
 10
15.5869214684
 20
12.0226163096
 11
15.8500817524
 21
12.0226163096
  0
LINE
  5
2B5
100
AcDbEntity
  8
0
100
AcDbLine
 62
7
  6
BYLAYER
 10
15.8926908464
 20
12.0008268277
 11
15.881584023
 21
12.0025139687
  0
LINE
  5
2B6
100
AcDbEntity
  8
0
100
AcDbLine
 62
7
  6
BYLAYER
 10
16.9513282127
 20
11.8573887062
 11
16.9538183678
 21
11.8569418123
  0
LINE
  5
2B7
100
AcDbEntity
  8
0
100
AcDbLine
 62
7
  6
BYLAYER
 10
16.8823108647
 20
11.8706350781
 11
16.9513174633
 21
11.8573907688
  0
LINE
  5
2B8
100
AcDbEntity
  8
0
100
AcDbLine
 62
7
  6
BYLAYER
 10
16.9538183678
 20
11.8569418123
 11
17.2679527138
 21
11.7966195483
  0
LINE
  5
2B9
100
AcDbEntity
  8
0
100
AcDbLine
 62
7
  6
BYLAYER
 10
15.8627698111
 20
11.8997720156
 11
15.848468964
 21
11.278949525
  0
LINE
  5
2BA
100
AcDbEntity
  8
0
100
AcDbLine
 62
7
  6
BYLAYER
 10
15.881584023
 20
12.0025139687
 11
15.863486397
 21
11.216867276
  0
LINE
  5
2BB
100
AcDbEntity
  8
0
100
AcDbLine
 62
7
  6
BYLAYER
 10
15.8745932204
 20
11.215180135
 11
15.8926908464
 21
12.0008268277
  0
LINE
  5
2BC
100
AcDbEntity
  8
02___PRT_ALL_AXES
100
AcDbLine
 62
7
  6
BYLAYER
 10
18.5247052745
 20
12.4315633812
 11
18.5223503913
 21
12.4312120316
  0
LINE
  5
2BD
100
AcDbEntity
  8
02___PRT_ALL_AXES
100
AcDbLine
 62
7
  6
BYLAYER
 10
18.1235630096
 20
12.6185561718
 11
18.1259178928
 21
12.6189075214
  0
LINE
  5
2BE
100
AcDbEntity
  8
0
100
AcDbLine
 62
7
  6
BYLAYER
 10
16.6070370483
 20
11.4742414081
 11
16.6153167561
 21
11.4573691375
  0
LINE
  5
2BF
100
AcDbEntity
  8
0
100
AcDbLine
 62
7
  6
BYLAYER
 10
16.0028989527
 20
11.7641695842
 11
15.8779234007
 21
11.3597485497
  0
LINE
  5
2C0
100
AcDbEntity
  8
0
100
AcDbLine
 62
7
  6
BYLAYER
 10
15.8438423381
 20
11.2494621909
 11
15.8373716644
 21
11.228523083
  0
LINE
  5
2C1
100
AcDbEntity
  8
02___PRT_ALL_AXES
100
AcDbLine
 62
7
  6
BYLAYER
 10
18.1235016581
 20
12.7256989131
 11
18.1211467749
 21
12.7253475635
  0
LINE
  5
2C2
100
AcDbEntity
  8
0
100
AcDbLine
 62
7
  6
BYLAYER
 10
16.8134438489
 20
11.7546802674
 11
16.8138061526
 21
11.7465975437
  0
LINE
  5
2C3
100
AcDbEntity
  8
0
100
AcDbLine
 62
7
  6
BYLAYER
 10
16.8823108647
 20
13.1794844748
 11
17.2681124009
 21
13.2535306531
  0
LINE
  5
2C4
100
AcDbEntity
  8
0
100
AcDbLine
 62
7
  6
BYLAYER
 10
16.6724055825
 20
11.6857740622
 11
16.6070370483
 21
11.4742414081
  0
LINE
  5
2C5
100
AcDbEntity
  8
0
100
AcDbLine
 62
7
  6
BYLAYER
 10
16.6153167561
 20
11.4573691375
 11
16.6858992162
 21
11.6857740622
  0
LINE
  5
2C6
100
AcDbEntity
  8
0
100
AcDbLine
 62
7
  6
BYLAYER
 10
17.8353949801
 20
13.4752401421
 11
17.8500853726
 21
13.4780603036
  0
LINE
  5
2C7
100
AcDbEntity
  8
0
100
AcDbLine
 62
7
  6
BYLAYER
 10
17.8716779407
 20
13.4810994564
 11
17.8500853726
 21
13.4780603036
  0
LINE
  5
2C8
100
AcDbEntity
  8
0
100
AcDbLine
 62
7
  6
BYLAYER
 10
18.1938698015
 20
13.1679169193
 11
18.324134142
 21
13.1679169193
  0
LINE
  5
2C9
100
AcDbEntity
  8
0
100
AcDbLine
 62
7
  6
BYLAYER
 10
16.9013580666
 20
13.2594347765
 11
16.8158309743
 21
13.2594347765
  0
LINE
  5
2CA
100
AcDbEntity
  8
0
100
AcDbLine
 62
7
  6
BYLAYER
 10
16.9538183678
 20
11.8569418123
 11
17.0794071694
 21
12.2633473234
  0
LINE
  5
2CB
100
AcDbEntity
  8
0
100
AcDbLine
 62
7
  6
BYLAYER
 10
16.7771793076
 20
13.3013990622
 11
16.6916522153
 21
13.3013990622
  0
LINE
  5
2CC
100
AcDbEntity
  8
0
100
AcDbLine
 62
7
  6
BYLAYER
 10
14.7912073293
 20
13.3643454908
 11
16.6916522153
 21
13.3643454908
  0
LINE
  5
2CD
100
AcDbEntity
  8
0
100
AcDbLine
 62
7
  6
BYLAYER
 10
17.1033511622
 20
13.6410359993
 11
17.138648864
 21
13.5691068456
  0
LINE
  5
2CE
100
AcDbEntity
  8
02__ASM_ALL_AXES
100
AcDbLine
 62
7
  6
BYLAYER
 10
18.2019103255
 20
12.9592027525
 11
18.2016117447
 21
12.9586474111
  0
LINE
  5
2CF
100
AcDbEntity
  8
02__ASM_ALL_AXES
100
AcDbLine
 62
7
  6
BYLAYER
 10
18.1348717182
 20
12.2997132827
 11
18.1353195004
 21
12.2972497057
  0
LINE
  5
2D0
100
AcDbEntity
  8
02__ASM_ALL_AXES
100
AcDbLine
 62
7
  6
BYLAYER
 10
18.1317701905
 20
12.3177534993
 11
18.1325889021
 21
12.3128133493
  0
LINE
  5
2D1
100
AcDbEntity
  8
02__ASM_ALL_AXES
100
AcDbLine
 62
7
  6
BYLAYER
 10
18.1188242602
 20
12.6200695372
 11
18.118741974
 21
12.6188894105
  0
LINE
  5
2D2
100
AcDbEntity
  8
0
100
AcDbLine
 62
7
  6
BYLAYER
 10
17.9944274169
 20
13.608727954
 11
18.0483874994
 21
13.4987688669
  0
LINE
  5
2D3
100
AcDbEntity
  8
02__ASM_ALL_AXES
100
AcDbLine
 62
7
  6
BYLAYER
 10
18.51773201
 20
12.3254716918
 11
18.5180212741
 21
12.3273319822
  0
LINE
  5
2D4
100
AcDbEntity
  8
0
100
AcDbLine
 62
7
  6
BYLAYER
 10
18.0652065051
 20
14.1130460446
 11
18.100504207
 21
14.0411168909
  0
ARC
  5
2D5
100
AcDbEntity
  8
0
100
AcDbCircle
 62
7
  6
BYLAYER
 10
7.3876692679
 20
3.538390053
 40
0.3118121251
100
AcDbArc
 50
142.7404492055
 51
180.0
  0
ARC
  5
2D6
100
AcDbEntity
  8
0
100
AcDbCircle
 62
7
  6
BYLAYER
 10
7.3876692679
 20
4.8911870899
 40
0.3118121251
100
AcDbArc
 50
180.0
 51
217.2595507945
  0
ARC
  5
2D7
100
AcDbEntity
  8
0
100
AcDbCircle
 62
7
  6
BYLAYER
 10
6.7857142857
 20
4.8807377748
 40
0.25
100
AcDbArc
 50
92.5540465914
 51
107.5279443791
  0
ARC
  5
2D8
100
AcDbEntity
  8
0
100
AcDbCircle
 62
7
  6
BYLAYER
 10
6.7857142857
 20
3.4655028571
 40
0.25
100
AcDbArc
 50
212.702612467
 51
307.297387533
  0
ARC
  5
2D9
100
AcDbEntity
  8
0
100
AcDbCircle
 62
7
  6
BYLAYER
 10
6.9939529814
 20
5.0897885714
 40
0.0819041614
100
AcDbArc
 50
0.0
 51
100.0
  0
ARC
  5
2DA
100
AcDbEntity
  8
0
100
AcDbCircle
 62
7
  6
BYLAYER
 10
6.9939529814
 20
3.3397885714
 40
0.0819041614
100
AcDbArc
 50
260.0
 51
360.0
  0
ARC
  5
2DB
100
AcDbEntity
  8
0
100
AcDbCircle
 62
7
  6
BYLAYER
 10
3.6071428571
 20
3.5098778571
 40
0.0714285714
100
AcDbArc
 50
180.0
 51
187.5418309978
  0
ARC
  5
2DC
100
AcDbEntity
  8
0
100
AcDbCircle
 62
7
  6
BYLAYER
 10
3.6071428571
 20
4.9196992857
 40
0.0714285714
100
AcDbArc
 50
90.0
 51
180.0
  0
ARC
  5
2DD
100
AcDbEntity
  8
0
100
AcDbCircle
 62
7
  6
BYLAYER
 10
7.0785714286
 20
5.1282451441
 40
0.0428571429
100
AcDbArc
 50
99.5940682269
 51
142.8656582291
  0
ARC
  5
2DE
100
AcDbEntity
  8
0
100
AcDbCircle
 62
7
  6
BYLAYER
 10
6.4928571429
 20
5.1282451444
 40
0.0428571429
100
AcDbArc
 50
0.0
 51
80.4059292421
  0
ARC
  5
2DF
100
AcDbEntity
  8
0
100
AcDbCircle
 62
7
  6
BYLAYER
 10
7.1679226957
 20
4.7240300951
 40
0.0357142857
100
AcDbArc
 50
217.2595507945
 51
255.0
  0
ARC
  5
2E0
100
AcDbEntity
  8
0
100
AcDbCircle
 62
7
  6
BYLAYER
 10
7.1679226957
 20
3.7055470478
 40
0.0357142857
100
AcDbArc
 50
105.0
 51
142.7404492055
  0
ARC
  5
2E1
100
AcDbEntity
  8
0
100
AcDbCircle
 62
7
  6
BYLAYER
 10
4.7767142857
 20
4.39336
 40
0.0357142857
100
AcDbArc
 50
90.0
 51
180.0
  0
ARC
  5
2E2
100
AcDbEntity
  8
0
100
AcDbCircle
 62
7
  6
BYLAYER
 10
5.0624285714
 20
4.39336
 40
0.0357142857
100
AcDbArc
 50
0.0
 51
90.0
  0
ARC
  5
2E3
100
AcDbEntity
  8
0
100
AcDbCircle
 62
7
  6
BYLAYER
 10
4.7767142857
 20
4.0362171429
 40
0.0357142857
100
AcDbArc
 50
180.0
 51
270.0
  0
ARC
  5
2E4
100
AcDbEntity
  8
0
100
AcDbCircle
 62
7
  6
BYLAYER
 10
5.0624285714
 20
4.0362171429
 40
0.0357142857
100
AcDbArc
 50
270.0
 51
360.0
  0
ARC
  5
2E5
100
AcDbEntity
  8
0
100
AcDbCircle
 62
7
  6
BYLAYER
 10
16.4345637079
 20
61.0291686609
 40
49.8722690117
100
AcDbArc
 50
257.917036722
 51
258.4476058341
  0
ARC
  5
2E6
100
AcDbEntity
  8
0
100
AcDbCircle
 62
7
  6
BYLAYER
 10
15.8107413561
 20
-32.4546830415
 40
46.8569110191
100
AcDbArc
 50
101.6903888082
 51
102.0921869465
  0
CIRCLE
  5
2E7
100
AcDbEntity
  8
0
100
AcDbCircle
 62
7
  6
BYLAYER
 10
6.7857142857
 20
13.6878901429
 40
0.5357142857
  0
CIRCLE
  5
2E8
100
AcDbEntity
  8
02__ASM_ALL_AXES
100
AcDbCircle
 62
7
  6
BYLAYER
 10
6.7857142857
 20
13.6878901429
 40
0.4285714286
  0
ARC
  5
2E9
100
AcDbEntity
  8
0
100
AcDbCircle
 62
7
  6
BYLAYER
 10
7.3876692679
 20
12.1357773387
 40
0.3118121251
100
AcDbArc
 50
142.7404492055
 51
180.0
  0
ARC
  5
2EA
100
AcDbEntity
  8
0
100
AcDbCircle
 62
7
  6
BYLAYER
 10
7.3876692679
 20
13.4885743756
 40
0.3118121251
100
AcDbArc
 50
189.4029393055
 51
208.8613221783
  0
ARC
  5
2EB
100
AcDbEntity
  8
0
100
AcDbCircle
 62
7
  6
BYLAYER
 10
6.7857142857
 20
12.0628901429
 40
0.25
100
AcDbArc
 50
212.702612467
 51
307.297387533
  0
CIRCLE
  5
2EC
100
AcDbEntity
  8
0
100
AcDbCircle
 62
7
  6
BYLAYER
 10
6.7857142857
 20
13.6878901429
 40
0.2142857143
  0
ARC
  5
2ED
100
AcDbEntity
  8
0
100
AcDbCircle
 62
7
  6
BYLAYER
 10
6.9939529814
 20
11.9371758571
 40
0.0819041614
100
AcDbArc
 50
260.0
 51
360.0
  0
ARC
  5
2EE
100
AcDbEntity
  8
0
100
AcDbCircle
 62
7
  6
BYLAYER
 10
3.6071428571
 20
13.5170865714
 40
0.0714285714
100
AcDbArc
 50
90.0
 51
180.0
  0
ARC
  5
2EF
100
AcDbEntity
  8
0
100
AcDbCircle
 62
7
  6
BYLAYER
 10
3.6071428571
 20
12.1072651429
 40
0.0714285714
100
AcDbArc
 50
180.0
 51
270.0
  0
CIRCLE
  5
2F0
100
AcDbEntity
  8
02___PRT_ALL_AXES
100
AcDbCircle
 62
7
  6
BYLAYER
 10
7.0887600491
 20
13.3848443795
 40
0.0535714286
  0
CIRCLE
  5
2F1
100
AcDbEntity
  8
02___PRT_ALL_AXES
100
AcDbCircle
 62
7
  6
BYLAYER
 10
6.4826685223
 20
13.3848443795
 40
0.0535714286
  0
CIRCLE
  5
2F2
100
AcDbEntity
  8
02___PRT_ALL_AXES
100
AcDbCircle
 62
7
  6
BYLAYER
 10
6.4826685223
 20
13.9909359062
 40
0.0535714286
  0
CIRCLE
  5
2F3
100
AcDbEntity
  8
02___PRT_ALL_AXES
100
AcDbCircle
 62
7
  6
BYLAYER
 10
7.0887600491
 20
13.9909359062
 40
0.0535714286
  0
ARC
  5
2F4
100
AcDbEntity
  8
0
100
AcDbCircle
 62
7
  6
BYLAYER
 10
7.1679226957
 20
12.3029343335
 40
0.0357142857
100
AcDbArc
 50
105.0
 51
142.7404492055
  0
ARC
  5
2F5
100
AcDbEntity
  8
0
100
AcDbCircle
 62
7
  6
BYLAYER
 10
7.1679226957
 20
13.3214173808
 40
0.0357142857
100
AcDbArc
 50
233.4871534087
 51
255.0
  0
ARC
  5
2F6
100
AcDbEntity
  8
0
100
AcDbCircle
 62
7
  6
BYLAYER
 10
5.0624285714
 20
11.3121758571
 40
0.0357142857
100
AcDbArc
 50
270.0
 51
360.0
  0
ARC
  5
2F7
100
AcDbEntity
  8
0
100
AcDbCircle
 62
7
  6
BYLAYER
 10
4.7767142857
 20
11.3121758571
 40
0.0357142857
100
AcDbArc
 50
180.0
 51
270.0
  0
CIRCLE
  5
2F8
100
AcDbEntity
  8
02___PRT_ALL_AXES
100
AcDbCircle
 62
7
  6
BYLAYER
 10
16.0672073933
 20
4.4213235531
 40
0.0535714286
  0
CIRCLE
  5
2F9
100
AcDbEntity
  8
02___PRT_ALL_AXES
100
AcDbCircle
 62
7
  6
BYLAYER
 10
16.0672073933
 20
4.0113055898
 40
0.0535714286
  0
CIRCLE
  5
2FA
100
AcDbEntity
  8
02___PRT_ALL_AXES
100
AcDbCircle
 62
7
  6
BYLAYER
 10
16.3571338755
 20
3.7213791076
 40
0.0535714286
  0
ARC
  5
2FB
100
AcDbEntity
  8
0
100
AcDbCircle
 62
7
  6
BYLAYER
 10
15.0621428571
 20
4.394886
 40
0.0357142857
100
AcDbArc
 50
90.0
 51
180.0
  0
ARC
  5
2FC
100
AcDbEntity
  8
0
100
AcDbCircle
 62
7
  6
BYLAYER
 10
15.0621428571
 20
4.0377431429
 40
0.0357142857
100
AcDbArc
 50
180.0
 51
270.0
  0
ARC
  5
2FD
100
AcDbEntity
  8
0
100
AcDbCircle
 62
7
  6
BYLAYER
 10
16.3025161421
 20
4.5020288571
 40
1.3853410008
100
AcDbArc
 50
312.2612198705
 51
360.0
  0
CIRCLE
  5
2FE
100
AcDbEntity
  8
02___PRT_ALL_AXES
100
AcDbCircle
 62
7
  6
BYLAYER
 10
16.3571338755
 20
4.7112500353
 40
0.0535714286
  0
ARC
  5
2FF
100
AcDbEntity
  8
0
100
AcDbCircle
 62
7
  6
BYLAYER
 10
16.5621428571
 20
4.2163145714
 40
0.9992857143
100
AcDbArc
 50
180.0
 51
312.2612198705
  0
ARC
  5
300
100
AcDbEntity
  8
0
100
AcDbCircle
 62
7
  6
BYLAYER
 10
16.5621428571
 20
4.2163145714
 40
0.9569041614
100
AcDbArc
 50
39.5932651517
 51
353.2682524644
  0
ARC
  5
301
100
AcDbEntity
  8
0
100
AcDbCircle
 62
7
  6
BYLAYER
 10
16.4788063462
 20
4.2163145714
 40
0.9159492033
100
AcDbArc
 50
117.0121335321
 51
180.0
  0
CIRCLE
  5
302
100
AcDbEntity
  8
0
100
AcDbCircle
 62
7
  6
BYLAYER
 10
16.5621428571
 20
4.2163145714
 40
0.6428571429
  0
CIRCLE
  5
303
100
AcDbEntity
  8
02__ASM_ALL_AXES
100
AcDbCircle
 62
7
  6
BYLAYER
 10
16.5621428571
 20
4.2163145714
 40
0.5357142857
  0
CIRCLE
  5
304
100
AcDbEntity
  8
0
100
AcDbCircle
 62
7
  6
BYLAYER
 10
16.5621428571
 20
4.2163145714
 40
0.2857142857
  0
CIRCLE
  5
305
100
AcDbEntity
  8
02___PRT_ALL_AXES
100
AcDbCircle
 62
7
  6
BYLAYER
 10
16.7671518388
 20
3.7213791076
 40
0.0535714286
  0
CIRCLE
  5
306
100
AcDbEntity
  8
02___PRT_ALL_AXES
100
AcDbCircle
 62
7
  6
BYLAYER
 10
17.057078321
 20
4.0113055898
 40
0.0535714286
  0
CIRCLE
  5
307
100
AcDbEntity
  8
02___PRT_ALL_AXES
100
AcDbCircle
 62
7
  6
BYLAYER
 10
17.057078321
 20
4.4213235531
 40
0.0535714286
  0
CIRCLE
  5
308
100
AcDbEntity
  8
02___PRT_ALL_AXES
100
AcDbCircle
 62
7
  6
BYLAYER
 10
16.7671518388
 20
4.7112500353
 40
0.0535714286
  0
ARC
  5
309
100
AcDbEntity
  8
0
100
AcDbCircle
 62
7
  6
BYLAYER
 10
17.7307142857
 20
5.1297711441
 40
0.0428571429
100
AcDbArc
 50
99.5940682269
 51
180.0
  0
ARC
  5
30A
100
AcDbEntity
  8
0
100
AcDbCircle
 62
7
  6
BYLAYER
 10
17.145
 20
5.1297711444
 40
0.0428571429
100
AcDbArc
 50
0.0
 51
80.4059292421
  0
ARC
  5
30B
100
AcDbEntity
  8
0
100
AcDbCircle
 62
7
  6
BYLAYER
 10
24.9717221766
 20
55.0650687348
 40
43.5233068519
100
AcDbArc
 50
259.0725973645
 51
259.5996648172
  0
ARC
  5
30C
100
AcDbEntity
  8
0
100
AcDbCircle
 62
7
  6
BYLAYER
 10
25.1735384774
 20
54.4530504208
 40
43.3819436598
100
AcDbArc
 50
259.1406699302
 51
259.4993505423
  0
ARC
  5
30D
100
AcDbEntity
  8
0
100
AcDbCircle
 62
7
  6
BYLAYER
 10
18.1055922037
 20
12.0700363773
 40
1.4309451824
100
AcDbArc
 50
100.8841801295
 51
101.7561954616
  0
ARC
  5
30E
100
AcDbEntity
  8
0
100
AcDbCircle
 62
7
  6
BYLAYER
 10
18.0535338262
 20
12.2009248121
 40
0.8467635762
100
AcDbArc
 50
204.0068606685
 51
206.1310407271
  0
ARC
  5
30F
100
AcDbEntity
  8
0
100
AcDbCircle
 62
7
  6
BYLAYER
 10
17.4350410845
 20
14.1834850609
 40
0.7273359945
100
AcDbArc
 50
298.1592425862
 51
306.5274392815
  0
ARC
  5
310
100
AcDbEntity
  8
0
100
AcDbCircle
 62
7
  6
BYLAYER
 10
17.4891877307
 20
13.9327836078
 40
0.5473116165
100
AcDbArc
 50
263.7823178177
 51
270.0743706512
  0
ARC
  5
311
100
AcDbEntity
  8
0
100
AcDbCircle
 62
7
  6
BYLAYER
 10
17.8191404086
 20
13.1458419574
 40
0.3576790483
100
AcDbArc
 50
47.2457711556
 51
47.6544644384
  0
ARC
  5
312
100
AcDbEntity
  8
0
100
AcDbCircle
 62
7
  6
BYLAYER
 10
16.8188336415
 20
12.0269615613
 40
0.2634112168
100
AcDbArc
 50
315.3919558143
 51
316.498129206
  0
ARC
  5
313
100
AcDbEntity
  8
0
100
AcDbCircle
 62
7
  6
BYLAYER
 10
15.5401777251
 20
11.239182151
 40
0.0358573286
100
AcDbArc
 50
206.1751517592
 51
241.0653941607
  0
ARC
  5
314
100
AcDbEntity
  8
0
100
AcDbCircle
 62
7
  6
BYLAYER
 10
15.5400980921
 20
11.2391007547
 40
0.0357475783
100
AcDbArc
 50
241.1139780669
 51
269.9962773675
  0
ARC
  5
315
100
AcDbEntity
  8
0
100
AcDbCircle
 62
7
  6
BYLAYER
 10
15.4311726331
 20
11.4610731712
 40
0.0357396394
100
AcDbArc
 50
162.8318918794
 51
206.1057904392
  0
ARC
  5
316
100
AcDbEntity
  8
0
100
AcDbCircle
 62
7
  6
BYLAYER
 10
15.8032493645
 20
11.239067975
 40
0.0357146166
100
AcDbArc
 50
270.0002034834
 51
342.8242883587
  0
SPLINE
  5
317
100
AcDbEntity
  8
0
100
AcDbSpline
 62
7
  6
BYLAYER
 70
0
 71
3
 72
27
 73
23
 74
0
 42
0.0000001
 43
0.0000001
 44
0.0000000001
 40
0.0
 40
0.0
 40
0.0
 40
0.0
 40
0.020931621
 40
0.0370075421
 40
0.0513737055
 40
0.0655176866
 40
0.0802927512
 40
0.0962012699
 40
0.1135343926
 40
0.1324557886
 40
0.1530514796
 40
0.1753589291
 40
0.1993838552
 40
0.225110336
 40
0.2815280813
 40
0.3442454804
 40
0.412770089
 40
0.4865256292
 40
0.5648716839
 40
0.6471178531
 40
0.8203335151
 40
1.0
 40
1.0
 40
1.0
 40
1.0
 10
6.7745749208
 20
5.1304896331
 30
0.0
 10
6.7813766413
 20
5.1307928769
 30
0.0
 10
6.7934926961
 20
5.1305794233
 30
0.0
 10
6.8098958253
 20
5.126749305
 30
0.0
 10
6.8230025615
 20
5.1202608383
 30
0.0
 10
6.8340845164
 20
5.1114335239
 30
0.0
 10
6.8437646894
 20
5.1004515977
 30
0.0
 10
6.8524140592
 20
5.0874024149
 30
0.0
 10
6.8602602462
 20
5.0723316535
 30
0.0
 10
6.8674473455
 20
5.055276833
 30
0.0
 10
6.8740717524
 20
5.0362783446
 30
0.0
 10
6.8802013997
 20
5.0153817454
 30
0.0
 10
6.8858874698
 20
4.9926378176
 30
0.0
 10
6.8931520479
 20
4.958871615
 30
0.0
 10
6.9011363788
 20
4.9124139743
 30
0.0
 10
6.9091764073
 20
4.8518958861
 30
0.0
 10
6.9160600149
 20
4.7855647004
 30
0.0
 10
6.9218796261
 20
4.7140329523
 30
0.0
 10
6.9267039226
 20
4.6379555267
 30
0.0
 10
6.9319665426
 20
4.5295015412
 30
0.0
 10
6.936127007
 20
4.3880144961
 30
0.0
 10
6.937202318
 20
4.2732291063
 30
0.0
 10
6.937202318
 20
4.2147885714
 30
0.0
  0
SPLINE
  5
318
100
AcDbEntity
  8
0
100
AcDbSpline
 62
7
  6
BYLAYER
 70
0
 71
3
 72
26
 73
22
 74
0
 42
0.0000001
 43
0.0000001
 44
0.0000000001
 40
0.0
 40
0.0
 40
0.0
 40
0.0
 40
0.175498452
 40
0.3449516423
 40
0.4256013022
 40
0.5026176212
 40
0.5753735715
 40
0.643296523
 40
0.7058825393
 40
0.7627156765
 40
0.8135003222
 40
0.8365827372
 40
0.8581326375
 40
0.87818849
 40
0.8968281563
 40
0.9141898764
 40
0.9305083084
 40
0.9461795839
 40
0.9618853294
 40
0.9788825601
 40
1.0
 40
1.0
 40
1.0
 40
1.0
 10
6.5753427487
 20
4.2147885714
 30
0.0
 10
6.5753427487
 20
4.2699510456
 30
0.0
 10
6.5760945967
 20
4.3783771706
 30
0.0
 10
6.5790358628
 20
4.5121266199
 30
0.0
 10
6.5828272532
 20
4.6148782935
 30
0.0
 10
6.5863544594
 20
4.6872203513
 30
0.0
 10
6.5906764008
 20
4.7555124566
 30
0.0
 10
6.5958786726
 20
4.8191946468
 30
0.0
 10
6.6020669888
 20
4.8777616112
 30
0.0
 10
6.609383883
 20
4.9307673799
 30
0.0
 10
6.6167900573
 20
4.971199641
 30
0.0
 10
6.6236614734
 20
5.0003996744
 30
0.0
 10
6.6291130535
 20
5.0199948912
 30
0.0
 10
6.6350921353
 20
5.037972587
 30
0.0
 10
6.6416905308
 20
5.0543256675
 30
0.0
 10
6.6490389643
 20
5.0690615776
 30
0.0
 10
6.6573367487
 20
5.0822063573
 30
0.0
 10
6.666909115
 20
5.0938074139
 30
0.0
 10
6.6783354958
 20
5.1039465971
 30
0.0
 10
6.6928503115
 20
5.1128069718
 30
0.0
 10
6.7040920581
 20
5.1171314289
 30
0.0
 10
6.7104215373
 20
5.1191303176
 30
0.0
  0
SPLINE
  5
319
100
AcDbEntity
  8
0
100
AcDbSpline
 62
7
  6
BYLAYER
 70
0
 71
3
 72
65
 73
61
 74
0
 42
0.0000001
 43
0.0000001
 44
0.0000000001
 40
0.0
 40
0.0
 40
0.0
 40
0.0
 40
0.0097573711
 40
0.0386283479
 40
0.0598924077
 40
0.0854345058
 40
0.1149961318
 40
0.148279893
 40
0.1849530528
 40
0.2246516329
 40
0.2455140836
 40
0.2669839104
 40
0.2890085713
 40
0.3115344233
 40
0.3345068217
 40
0.3578701672
 40
0.3815677795
 40
0.3935243521
 40
0.405542654
 40
0.41761492
 40
0.4297327786
 40
0.4418864219
 40
0.447974417
 40
0.4540668902
 40
0.4601613362
 40
0.4662538357
 40
0.4723393056
 40
0.4753866276
 40
0.4784373737
 40
0.4814936109
 40
0.4845535324
 40
0.4876357338
 40
0.4907156767
 40
0.4938030869
 40
0.4968914813
 40
0.5030728048
 40
0.5092589852
 40
0.5154455099
 40
0.5216300982
 40
0.5278109704
 40
0.5401548526
 40
0.5524685454
 40
0.5647433092
 40
0.5769711551
 40
0.589144485
 40
0.601255934
 40
0.6252640703
 40
0.6489398285
 40
0.6722282662
 40
0.6950757523
 40
0.7174299222
 40
0.7392397707
 40
0.7810288819
 40
0.8200639714
 40
0.8559931938
 40
0.8884936687
 40
0.9172738739
 40
0.9626786227
 40
0.9905855413
 40
1.0
 40
1.0
 40
1.0
 40
1.0
 10
6.5753427487
 20
11.9278204705
 30
0.0
 10
6.5757840585
 20
11.933602728
 30
0.0
 10
6.5775501817
 20
11.9564926101
 30
0.0
 10
6.5804077524
 20
11.9919736301
 30
0.0
 10
6.5842258608
 20
12.0367884123
 30
0.0
 10
6.5882866004
 20
12.0819941
 30
0.0
 10
6.5932904009
 20
12.1342867466
 30
0.0
 10
6.5993530751
 20
12.1931225209
 30
0.0
 10
6.6066257527
 20
12.2578878305
 30
0.0
 10
6.613739991
 20
12.3152391753
 30
0.0
 10
6.6202830254
 20
12.3635518344
 30
0.0
 10
6.6257508972
 20
12.4014087015
 30
0.0
 10
6.6317627095
 20
12.4401839852
 30
0.0
 10
6.6384034167
 20
12.4797627062
 30
0.0
 10
6.6457884811
 20
12.5200193168
 30
0.0
 10
6.6540844227
 20
12.5608099164
 30
0.0
 10
6.661939887
 20
12.5950009068
 30
0.0
 10
6.6690166404
 20
12.622437772
 30
0.0
 10
6.674822717
 20
12.6430619856
 30
0.0
 10
6.6812275769
 20
12.6636103988
 30
0.0
 10
6.6884081262
 20
12.6839877529
 30
0.0
 10
6.695269248
 20
12.7006911352
 30
0.0
 10
6.7015463559
 20
12.7137256245
 30
0.0
 10
6.7067652795
 20
12.7232578041
 30
0.0
 10
6.712655505
 20
12.7324032336
 30
0.0
 10
6.7194602187
 20
12.740895024
 30
0.0
 10
6.7262677322
 20
12.7469845117
 30
0.0
 10
6.73259932
 20
12.7505720494
 30
0.0
 10
6.7378176198
 20
12.7522564796
 30
0.0
 10
6.7433049026
 20
12.7527119685
 30
0.0
 10
6.7487396244
 20
12.7517313964
 30
0.0
 10
6.7538303005
 20
12.7496119441
 30
0.0
 10
6.7584838576
 20
12.7466457419
 30
0.0
 10
6.76270183
 20
12.7430972806
 30
0.0
 10
6.7678586584
 20
12.737856944
 30
0.0
 10
6.773545831
 20
12.7306107036
 30
0.0
 10
6.7795201853
 20
12.7213320314
 30
0.0
 10
6.784875412
 20
12.7116832806
 30
0.0
 10
6.7897556089
 20
12.701792678
 30
0.0
 10
6.7957567678
 20
12.6883865331
 30
0.0
 10
6.8024961528
 20
12.6713332078
 30
0.0
 10
6.8097270747
 20
12.6506045002
 30
0.0
 10
6.8163034469
 20
12.6297323759
 30
0.0
 10
6.8223612387
 20
12.6087919057
 30
0.0
 10
6.827993679
 20
12.5878340064
 30
0.0
 10
6.8350047258
 20
12.5600007102
 30
0.0
 10
6.8430018189
 20
12.5253705111
 30
0.0
 10
6.8516797711
 20
12.4840900435
 30
0.0
 10
6.8595845936
 20
12.44335759
 30
0.0
 10
6.8668371139
 20
12.4033024517
 30
0.0
 10
6.873524285
 20
12.3640404474
 30
0.0
 10
6.8816574091
 20
12.3136071871
 30
0.0
 10
6.8906983501
 20
12.2532806373
 30
0.0
 10
6.9002001461
 20
12.1845433875
 30
0.0
 10
6.9083800672
 20
12.1211993609
 30
0.0
 10
6.915371706
 20
12.063849029
 30
0.0
 10
6.9226858128
 20
12.000865929
 30
0.0
 10
6.9293046552
 20
11.9405513678
 30
0.0
 10
6.934399944
 20
11.8916495501
 30
0.0
 10
6.9366406918
 20
11.869581882
 30
0.0
 10
6.937202318
 20
11.8640148652
 30
0.0
  0
SPLINE
  5
31A
100
AcDbEntity
  8
0
100
AcDbSpline
 62
7
  6
BYLAYER
 70
0
 71
3
 72
17
 73
13
 74
0
 42
0.0000001
 43
0.0000001
 44
0.0000000001
 40
0.0
 40
0.0
 40
0.0
 40
0.0
 40
0.0205209178
 40
0.044757989
 40
0.0746577845
 40
0.1111676801
 40
0.2049228143
 40
0.3257628422
 40
0.4706912737
 40
0.6353473039
 40
0.8142101464
 40
1.0
 40
1.0
 40
1.0
 40
1.0
 10
4.741
 20
11.9921071069
 30
0.0
 10
4.741
 20
11.9923669678
 30
0.0
 10
4.7411411629
 20
11.9929362734
 30
0.0
 10
4.7416918711
 20
11.9937201142
 30
0.0
 10
4.7425542533
 20
11.9944875777
 30
0.0
 10
4.7442673142
 20
11.9955837421
 30
0.0
 10
4.747209944
 20
11.9968329978
 30
0.0
 10
4.7515814963
 20
11.9981186579
 30
0.0
 10
4.7569264298
 20
11.9992161722
 30
0.0
 10
4.7630577673
 20
12.0000579785
 30
0.0
 10
4.7697430258
 20
12.0005857898
 30
0.0
 10
4.7743615877
 20
12.0007067309
 30
0.0
 10
4.7767142857
 20
12.0007067309
 30
0.0
  0
SPLINE
  5
31B
100
AcDbEntity
  8
0
100
AcDbSpline
 62
7
  6
BYLAYER
 70
0
 71
3
 72
17
 73
13
 74
0
 42
0.0000001
 43
0.0000001
 44
0.0000000001
 40
0.0
 40
0.0
 40
0.0
 40
0.0
 40
0.1857898536
 40
0.3646526961
 40
0.5293087263
 40
0.6742371578
 40
0.7950771857
 40
0.8888323199
 40
0.9253422155
 40
0.955242011
 40
0.9794790822
 40
1.0
 40
1.0
 40
1.0
 40
1.0
 10
5.0624285714
 20
12.0007067309
 30
0.0
 10
5.0647812695
 20
12.0007067309
 30
0.0
 10
5.0693998313
 20
12.0005857898
 30
0.0
 10
5.0760850898
 20
12.0000579785
 30
0.0
 10
5.0822164273
 20
11.9992161722
 30
0.0
 10
5.0875613609
 20
11.9981186579
 30
0.0
 10
5.0919329132
 20
11.9968329978
 30
0.0
 10
5.0948755429
 20
11.9955837421
 30
0.0
 10
5.0965886038
 20
11.9944875777
 30
0.0
 10
5.097450986
 20
11.9937201142
 30
0.0
 10
5.0980016943
 20
11.9929362734
 30
0.0
 10
5.0981428571
 20
11.9923669678
 30
0.0
 10
5.0981428571
 20
11.9921071069
 30
0.0
  0
SPLINE
  5
31C
100
AcDbEntity
  8
0
100
AcDbSpline
 62
7
  6
BYLAYER
 70
0
 71
3
 72
15
 73
11
 74
0
 42
0.0000001
 43
0.0000001
 44
0.0000000001
 40
0.0
 40
0.0
 40
0.0
 40
0.0
 40
0.253172322
 40
0.3797571186
 40
0.5061466477
 40
0.6320807478
 40
0.7571062849
 40
0.8803641188
 40
0.9408317697
 40
1.0
 40
1.0
 40
1.0
 40
1.0
 10
17.4642451187
 20
4.5020288571
 30
0.0
 10
17.4543793789
 20
4.5312141538
 30
0.0
 10
17.4377842969
 20
4.5743999242
 30
0.0
 10
17.4129839902
 20
4.6307816492
 30
0.0
 10
17.3931572185
 20
4.6724180149
 30
0.0
 10
17.3721343543
 20
4.7132507829
 30
0.0
 10
17.3498403243
 20
4.7529689002
 30
0.0
 10
17.329947229
 20
4.7848696088
 30
0.0
 10
17.3130072029
 20
4.8090979801
 30
0.0
 10
17.3041109274
 20
4.8206338178
 30
0.0
 10
17.2995221255
 20
4.8261820329
 30
0.0
  0
SPLINE
  5
31D
100
AcDbEntity
  8
0
100
AcDbSpline
 62
7
  6
BYLAYER
 70
0
 71
3
 72
11
 73
7
 74
0
 42
0.0000001
 43
0.0000001
 44
0.0000000001
 40
0.0
 40
0.0
 40
0.0
 40
0.0
 40
0.2491753407
 40
0.4987212423
 40
0.7490024706
 40
1.0
 40
1.0
 40
1.0
 40
1.0
 10
17.5124495764
 20
4.1041452934
 30
0.0
 10
17.5163824595
 20
4.1374665498
 30
0.0
 10
17.5200064931
 20
4.2047390444
 30
0.0
 10
17.5127440448
 20
4.3055713048
 30
0.0
 10
17.4939904583
 20
4.4051078388
 30
0.0
 10
17.4750684343
 20
4.4700108149
 30
0.0
 10
17.4642451187
 20
4.5020288571
 30
0.0
  0
SPLINE
  5
31E
100
AcDbEntity
  8
0
100
AcDbSpline
 62
7
  6
BYLAYER
 70
0
 71
3
 72
17
 73
13
 74
0
 42
0.0000001
 43
0.0000001
 44
0.0000000001
 40
0.0
 40
0.0
 40
0.0
 40
0.0
 40
0.1684584328
 40
0.2482143617
 40
0.3248156683
 40
0.4682149578
 40
0.5982854392
 40
0.7151486079
 40
0.8196398213
 40
0.9135469128
 40
0.9574864954
 40
1.0
 40
1.0
 40
1.0
 40
1.0
 10
16.7011743416
 20
12.9329913182
 30
0.0
 10
16.7064573298
 20
12.9500870741
 30
0.0
 10
16.7149676939
 20
12.9750659927
 30
0.0
 10
16.7277817783
 20
13.0071065432
 30
0.0
 10
16.7406945674
 20
13.0362163988
 30
0.0
 10
16.7577609738
 20
13.0693085179
 30
0.0
 10
16.7802373976
 20
13.104237272
 30
0.0
 10
16.8040471151
 20
13.1331261056
 30
0.0
 10
16.8289922614
 20
13.1556764061
 30
0.0
 10
16.8511100929
 20
13.1692427369
 30
0.0
 10
16.8689584966
 20
13.1763101059
 30
0.0
 10
16.8778730861
 20
13.1786323251
 30
0.0
 10
16.8823078337
 20
13.1794836828
 30
0.0
  0
SPLINE
  5
31F
100
AcDbEntity
  8
0
100
AcDbSpline
 62
7
  6
BYLAYER
 70
0
 71
3
 72
29
 73
25
 74
0
 42
0.0000001
 43
0.0000001
 44
0.0000000001
 40
0.0
 40
0.0
 40
0.0
 40
0.0
 40
0.0661473273
 40
0.136716724
 40
0.2107076663
 40
0.2870127016
 40
0.3644620738
 40
0.4418545596
 40
0.5179905612
 40
0.5917045355
 40
0.6618987616
 40
0.7275805055
 40
0.758464787
 40
0.7879193902
 40
0.8158712875
 40
0.8422649877
 40
0.8670652196
 40
0.8902624738
 40
0.9118772031
 40
0.9319670103
 40
0.9506354175
 40
0.9680396873
 40
0.9843996332
 40
1.0
 40
1.0
 40
1.0
 40
1.0
 10
16.7011743416
 20
12.9329913182
 30
0.0
 10
16.6937211791
 20
12.9088728754
 30
0.0
 10
16.6803260926
 20
12.8583897318
 30
0.0
 10
16.6649395741
 20
12.7794134481
 30
0.0
 10
16.6538033
 20
12.6958154045
 30
0.0
 10
16.6471265014
 20
12.6091155744
 30
0.0
 10
16.6450330679
 20
12.5208871079
 30
0.0
 10
16.6475620107
 20
12.4327345327
 30
0.0
 10
16.6546661201
 20
12.3462608596
 30
0.0
 10
16.6662130028
 20
12.263034785
 30
0.0
 10
16.6819887555
 20
12.1845680815
 30
0.0
 10
16.6987420334
 20
12.1231055372
 30
0.0
 10
16.7141740276
 20
12.0775422275
 30
0.0
 10
16.7263645967
 20
12.0461176504
 30
0.0
 10
16.7393526794
 20
12.0168783279
 30
0.0
 10
16.753080099
 20
11.9899554552
 30
0.0
 10
16.7674867205
 20
11.9654699582
 30
0.0
 10
16.7825092184
 20
11.9435304054
 30
0.0
 10
16.7980845619
 20
11.9242342835
 30
0.0
 10
16.8141505348
 20
11.9076685007
 30
0.0
 10
16.8306439203
 20
11.8939095617
 30
0.0
 10
16.8475063712
 20
11.8830290582
 30
0.0
 10
16.8646655736
 20
11.87509601
 30
0.0
 10
16.8764641973
 20
11.8717572018
 30
0.0
 10
16.8823110502
 20
11.8706350426
 30
0.0
  0
SPLINE
  5
320
100
AcDbEntity
  8
0
100
AcDbSpline
 62
7
  6
BYLAYER
 70
0
 71
3
 72
11
 73
7
 74
0
 42
0.0000001
 43
0.0000001
 44
0.0000000001
 40
0.0
 40
0.0
 40
0.0
 40
0.0
 40
0.274958127
 40
0.5352146948
 40
0.7777336439
 40
1.0
 40
1.0
 40
1.0
 40
1.0
 10
17.1146815951
 20
12.2568317631
 30
0.0
 10
17.1189696995
 20
12.2281127826
 30
0.0
 10
17.1288151944
 20
12.1724186284
 30
0.0
 10
17.1479498721
 20
12.0924882675
 30
0.0
 10
17.170801365
 20
12.0193441695
 30
0.0
 10
17.1891285574
 20
11.9737276363
 30
0.0
 10
17.198965917
 20
11.9524157434
 30
0.0
  0
SPLINE
  5
321
100
AcDbEntity
  8
0
100
AcDbSpline
 62
7
  6
BYLAYER
 70
0
 71
3
 72
21
 73
17
 74
0
 42
0.0000001
 43
0.0000001
 44
0.0000000001
 40
0.0
 40
0.0
 40
0.0
 40
0.0
 40
0.1717018984
 40
0.3336007076
 40
0.410017325
 40
0.4829896364
 40
0.5522593788
 40
0.6176146066
 40
0.6788970747
 40
0.7360194647
 40
0.7889766963
 40
0.8378690266
 40
0.8829271128
 40
0.9245423515
 40
0.963306832
 40
1.0
 40
1.0
 40
1.0
 40
1.0
 10
16.7212239444
 20
12.3309194131
 30
0.0
 10
16.7249262355
 20
12.299540488
 30
0.0
 10
16.7339885123
 20
12.2387750765
 30
0.0
 10
16.750219534
 20
12.1650140482
 30
0.0
 10
16.7658865383
 20
12.1098993506
 30
0.0
 10
16.77856023
 20
12.0716950258
 30
0.0
 10
16.7923099726
 20
12.0360360232
 30
0.0
 10
16.8070594991
 20
12.0031194757
 30
0.0
 10
16.8227289148
 20
11.9731273778
 30
0.0
 10
16.8392322108
 20
11.9462231239
 30
0.0
 10
16.8564839912
 20
11.9225530766
 30
0.0
 10
16.8743991717
 20
11.9022465861
 30
0.0
 10
16.8928914302
 20
11.8854157421
 30
0.0
 10
16.9118852491
 20
11.8721641346
 30
0.0
 10
16.9312863092
 20
11.8625961183
 30
0.0
 10
16.9446968969
 20
11.8586611147
 30
0.0
 10
16.9513282146
 20
11.8573887703
 30
0.0
  0
SPLINE
  5
322
100
AcDbEntity
  8
02__ASM_ALL_AXES
100
AcDbSpline
 62
7
  6
BYLAYER
 70
0
 71
3
 72
45
 73
41
 74
0
 42
0.0000001
 43
0.0000001
 44
0.0000000001
 40
0.0
 40
0.0
 40
0.0
 40
0.0
 40
0.0625
 40
0.125
 40
0.15625
 40
0.171875
 40
0.1875
 40
0.21875
 40
0.25
 40
0.28125
 40
0.3125
 40
0.328125
 40
0.3359375
 40
0.34375
 40
0.359375
 40
0.375
 40
0.4375
 40
0.46875
 40
0.484375
 40
0.5
 40
0.515625
 40
0.53125
 40
0.5625
 40
0.625
 40
0.640625
 40
0.65625
 40
0.6640625
 40
0.671875
 40
0.6875
 40
0.71875
 40
0.75
 40
0.78125
 40
0.8125
 40
0.828125
 40
0.8359375
 40
0.84375
 40
0.859375
 40
0.875
 40
0.9375
 40
1.0
 40
1.0
 40
1.0
 40
1.0
 10
18.4538125296
 20
12.9446991924
 30
0.0
 10
18.4521220996
 20
12.9478685624
 30
0.0
 10
18.4487444693
 20
12.9542118655
 30
0.0
 10
18.444506283
 20
12.9621181795
 30
0.0
 10
18.4415692253
 20
12.9676945217
 30
0.0
 10
18.4398448836
 20
12.9708159805
 30
0.0
 10
18.437947235
 20
12.9736924701
 30
0.0
 10
18.4356346497
 20
12.9773725472
 30
0.0
 10
18.4328340257
 20
12.9817506614
 30
0.0
 10
18.4300403275
 20
12.986145545
 30
0.0
 10
18.4277104275
 20
12.9897836984
 30
0.0
 10
18.4260802858
 20
12.9923739934
 30
0.0
 10
18.4251479702
 20
12.9937867151
 30
0.0
 10
18.4242127459
 20
12.9949456224
 30
0.0
 10
18.4230446675
 20
12.9964809354
 30
0.0
 10
18.4202408657
 20
13.000095013
 30
0.0
 10
18.416965705
 20
13.0043269571
 30
0.0
 10
18.4137030822
 20
13.0085741801
 30
0.0
 10
18.4118200157
 20
13.0109643299
 30
0.0
 10
18.4104602655
 20
13.012863081
 30
0.0
 10
18.4088996719
 20
13.0143556944
 30
0.0
 10
18.4068889576
 20
13.0164873654
 30
0.0
 10
18.4033373495
 20
13.0201533135
 30
0.0
 10
18.3997989369
 20
13.023834629
 30
0.0
 10
18.3967612058
 20
13.0270031665
 30
0.0
 10
18.395497211
 20
13.0282941991
 30
0.0
 10
18.3944823521
 20
13.0293957719
 30
0.0
 10
18.3934807644
 20
13.0302457107
 30
0.0
 10
18.3917341318
 20
13.0316161196
 30
0.0
 10
18.3892358409
 20
13.0336353124
 30
0.0
 10
18.3862387308
 20
13.0360306997
 30
0.0
 10
18.3832432273
 20
13.0384383179
 30
0.0
 10
18.3807409198
 20
13.0404269335
 30
0.0
 10
18.3790013163
 20
13.0418508526
 30
0.0
 10
18.3779884819
 20
13.0426151751
 30
0.0
 10
18.3769049357
 20
13.0431937844
 30
0.0
 10
18.3755746731
 20
13.043980525
 30
0.0
 10
18.3723621451
 20
13.0458164443
 30
0.0
 10
18.3675517774
 20
13.0485924487
 30
0.0
 10
18.3632724719
 20
13.0510510174
 30
0.0
 10
18.361133247
 20
13.0522814256
 30
0.0
  0
SPLINE
  5
323
100
AcDbEntity
  8
02__ASM_ALL_AXES
100
AcDbSpline
 62
7
  6
BYLAYER
 70
0
 71
3
 72
46
 73
42
 74
0
 42
0.0000001
 43
0.0000001
 44
0.0000000001
 40
0.0
 40
0.0
 40
0.0
 40
0.0
 40
0.0625
 40
0.125
 40
0.140625
 40
0.15625
 40
0.171875
 40
0.1875
 40
0.21875
 40
0.25
 40
0.28125
 40
0.3125
 40
0.328125
 40
0.3359375
 40
0.34375
 40
0.359375
 40
0.375
 40
0.4375
 40
0.46875
 40
0.484375
 40
0.5
 40
0.515625
 40
0.53125
 40
0.5625
 40
0.625
 40
0.640625
 40
0.65625
 40
0.6640625
 40
0.671875
 40
0.6875
 40
0.71875
 40
0.75
 40
0.78125
 40
0.8125
 40
0.828125
 40
0.8359375
 40
0.84375
 40
0.859375
 40
0.875
 40
0.9375
 40
1.0
 40
1.0
 40
1.0
 40
1.0
 10
18.3611332458
 20
13.0522814262
 30
0.0
 10
18.359331769
 20
13.0529493463
 30
0.0
 10
18.355728753
 20
13.0542837143
 30
0.0
 10
18.3516756409
 20
13.0557915031
 30
0.0
 10
18.3489731566
 20
13.0567870345
 30
0.0
 10
18.3476226398
 20
13.0573019143
 30
0.0
 10
18.3462693036
 20
13.0577502701
 30
0.0
 10
18.3444514145
 20
13.0580314026
 30
0.0
 10
18.3421837417
 20
13.0584917516
 30
0.0
 10
18.3394601908
 20
13.0589963031
 30
0.0
 10
18.3367385124
 20
13.0595180306
 30
0.0
 10
18.3344661581
 20
13.0599354398
 30
0.0
 10
18.3328836977
 20
13.0602565754
 30
0.0
 10
18.3319666855
 20
13.0603956634
 30
0.0
 10
18.331001662
 20
13.0603677103
 30
0.0
 10
18.3298118207
 20
13.0603897793
 30
0.0
 10
18.3269424289
 20
13.0603965681
 30
0.0
 10
18.3236020655
 20
13.0604111212
 30
0.0
 10
18.3202519723
 20
13.0604461805
 30
0.0
 10
18.3183493345
 20
13.0604265128
 30
0.0
 10
18.3168900324
 20
13.0605250078
 30
0.0
 10
18.3155541747
 20
13.0601903703
 30
0.0
 10
18.3137299393
 20
13.0598951707
 30
0.0
 10
18.3105579354
 20
13.0593092059
 30
0.0
 10
18.3073765987
 20
13.0587431018
 30
0.0
 10
18.3046551605
 20
13.0582648578
 30
0.0
 10
18.3035166357
 20
13.0580444852
 30
0.0
 10
18.3026162949
 20
13.0579181385
 30
0.0
 10
18.3016777119
 20
13.0576088697
 30
0.0
 10
18.3000174281
 20
13.0569825967
 30
0.0
 10
18.2976548566
 20
13.0561326724
 30
0.0
 10
18.2948159132
 20
13.0550923629
 30
0.0
 10
18.2919775804
 20
13.0540620522
 30
0.0
 10
18.2896134822
 20
13.0531871311
 30
0.0
 10
18.2879558701
 20
13.0526046024
 30
0.0
 10
18.2870130124
 20
13.0522253429
 30
0.0
 10
18.2860865514
 20
13.0516714835
 30
0.0
 10
18.2849228706
 20
13.0510388396
 30
0.0
 10
18.2821346505
 20
13.0494713633
 30
0.0
 10
18.2779503669
 20
13.0471409502
 30
0.0
 10
18.2742317975
 20
13.0450610193
 30
0.0
 10
18.2723724135
 20
13.0440221104
 30
0.0
  0
LINE
  5
324
100
AcDbEntity
  8
02__ASM_ALL_AXES
100
AcDbLine
 62
7
  6
BYLAYER
 10
18.2723724162
 20
13.0440221122
 11
18.2639550247
 21
13.0380007564
  0
SPLINE
  5
325
100
AcDbEntity
  8
02__ASM_ALL_AXES
100
AcDbSpline
 62
7
  6
BYLAYER
 70
0
 71
3
 72
33
 73
29
 74
0
 42
0.0000001
 43
0.0000001
 44
0.0000000001
 40
0.0
 40
0.0
 40
0.0
 40
0.0
 40
0.0625
 40
0.125
 40
0.15625
 40
0.171875
 40
0.1875
 40
0.25
 40
0.3125
 40
0.328125
 40
0.34375
 40
0.375
 40
0.4375
 40
0.46875
 40
0.5
 40
0.53125
 40
0.5625
 40
0.625
 40
0.65625
 40
0.671875
 40
0.6875
 40
0.75
 40
0.8125
 40
0.828125
 40
0.84375
 40
0.875
 40
0.9375
 40
1.0
 40
1.0
 40
1.0
 40
1.0
 10
18.2639550246
 20
13.0380007564
 30
0.0
 10
18.2626585794
 20
13.0369019123
 30
0.0
 10
18.2600652309
 20
13.034707499
 30
0.0
 10
18.2568258353
 20
13.0319481086
 30
0.0
 10
18.2545540504
 20
13.030046622
 30
0.0
 10
18.2532624144
 20
13.0289133932
 30
0.0
 10
18.2513607196
 20
13.0269581573
 30
0.0
 10
18.2484911784
 20
13.0241447621
 30
0.0
 10
18.2456359947
 20
13.021236621
 30
0.0
 10
18.2437199423
 20
13.0193761311
 30
0.0
 10
18.242469784
 20
13.0179691917
 30
0.0
 10
18.2402955401
 20
13.0154246211
 30
0.0
 10
18.2378022149
 20
13.0125661221
 30
0.0
 10
18.2353188484
 20
13.0096530799
 30
0.0
 10
18.2334349227
 20
13.0075823463
 30
0.0
 10
18.2316316208
 20
13.0050826921
 30
0.0
 10
18.2291986042
 20
13.0019017849
 30
0.0
 10
18.2267760244
 20
12.9986669281
 30
0.0
 10
18.2246476484
 20
12.9958783191
 30
0.0
 10
18.22344099
 20
12.9942399904
 30
0.0
 10
18.2216817785
 20
12.9915449069
 30
0.0
 10
18.2190194077
 20
12.9876141794
 30
0.0
 10
18.2163750872
 20
12.9835922467
 30
0.0
 10
18.2145978255
 20
12.9809883683
 30
0.0
 10
18.2134433124
 20
12.9790865582
 30
0.0
 10
18.2114374475
 20
12.9756788106
 30
0.0
 10
18.2085642772
 20
12.9708524839
 30
0.0
 10
18.2062680721
 20
12.9669786578
 30
0.0
 10
18.2051196782
 20
12.9650433403
 30
0.0
  0
LINE
  5
326
100
AcDbEntity
  8
02__ASM_ALL_AXES
100
AcDbLine
 62
7
  6
BYLAYER
 10
18.20511968
 20
12.9650433435
 11
18.2019103253
 21
12.9592027522
  0
LINE
  5
327
100
AcDbEntity
  8
02__ASM_ALL_AXES
100
AcDbLine
 62
7
  6
BYLAYER
 10
18.2016117447
 20
12.9586474111
 11
18.2003390456
 21
12.9562569585
  0
SPLINE
  5
328
100
AcDbEntity
  8
02__ASM_ALL_AXES
100
AcDbSpline
 62
7
  6
BYLAYER
 70
0
 71
3
 72
60
 73
56
 74
0
 42
0.0000001
 43
0.0000001
 44
0.0000000001
 40
0.0
 40
0.0
 40
0.0
 40
0.0
 40
0.0625
 40
0.09375
 40
0.125
 40
0.140625
 40
0.15625
 40
0.1640625
 40
0.16796875
 40
0.171875
 40
0.1796875
 40
0.1875
 40
0.203125
 40
0.21875
 40
0.25
 40
0.28125
 40
0.3125
 40
0.328125
 40
0.3359375
 40
0.34375
 40
0.359375
 40
0.375
 40
0.40625
 40
0.4375
 40
0.453125
 40
0.46875
 40
0.484375
 40
0.4921875
 40
0.49609375
 40
0.5
 40
0.50390625
 40
0.5078125
 40
0.515625
 40
0.53125
 40
0.546875
 40
0.5625
 40
0.59375
 40
0.625
 40
0.640625
 40
0.65625
 40
0.6640625
 40
0.671875
 40
0.6875
 40
0.71875
 40
0.75
 40
0.78125
 40
0.8125
 40
0.828125
 40
0.8359375
 40
0.84375
 40
0.859375
 40
0.875
 40
0.90625
 40
0.9375
 40
1.0
 40
1.0
 40
1.0
 40
1.0
 10
18.2003390456
 20
12.9562569585
 30
0.0
 10
18.1978964114
 20
12.9510124546
 30
0.0
 10
18.1942325623
 20
12.9431452557
 30
0.0
 10
18.189347021
 20
12.9326574291
 30
0.0
 10
18.1862944103
 20
12.926098846
 30
0.0
 10
18.1838503777
 20
12.9208603962
 30
0.0
 10
18.1823272912
 20
12.9175671691
 30
0.0
 10
18.1812522447
 20
12.9153003804
 30
0.0
 10
18.1806518353
 20
12.9139448824
 30
0.0
 10
18.1801037999
 20
12.9123626393
 30
0.0
 10
18.1794008235
 20
12.9104624718
 30
0.0
 10
18.178286079
 20
12.9073788216
 30
0.0
 10
18.1768892442
 20
12.9035390794
 30
0.0
 10
18.1746560593
 20
12.8973874046
 30
0.0
 10
18.1718650646
 20
12.889699184
 30
0.0
 10
18.16851091
 20
12.8804788606
 30
0.0
 10
18.1657316691
 20
12.8727749559
 30
0.0
 10
18.1637550062
 20
12.8674224322
 30
0.0
 10
18.1626741941
 20
12.8643010071
 30
0.0
 10
18.1617768528
 20
12.8609428738
 30
0.0
 10
18.1605923557
 20
12.856826255
 30
0.0
 10
18.1587322695
 20
12.8501943755
 30
0.0
 10
18.156395125
 20
12.8419200051
 30
0.0
 10
18.1540622411
 20
12.8336403304
 30
0.0
 10
18.1521953379
 20
12.8270169378
 30
0.0
 10
18.1507943923
 20
12.8220515344
 30
0.0
 10
18.1496297467
 20
12.8179064167
 30
0.0
 10
18.1488089319
 20
12.815019189
 30
0.0
 10
18.1483485885
 20
12.8133469209
 30
0.0
 10
18.1479788395
 20
12.8121558894
 30
0.0
 10
18.1477027096
 20
12.8107233917
 30
0.0
 10
18.1473018811
 20
12.8088976208
 30
0.0
 10
18.1466156451
 20
12.8056632802
 30
0.0
 10
18.1456273611
 20
12.801063301
 30
0.0
 10
18.1444447907
 20
12.7955345858
 30
0.0
 10
18.1428670084
 20
12.7881658307
 30
0.0
 10
18.1408940175
 20
12.778955248
 30
0.0
 10
18.1389253556
 20
12.769739639
 30
0.0
 10
18.137340647
 20
12.7623789261
 30
0.0
 10
18.1363724872
 20
12.7577515579
 30
0.0
 10
18.1355469247
 20
12.7541113341
 30
0.0
 10
18.1349076745
 20
12.7502459655
 30
0.0
 10
18.1338755929
 20
12.7433769333
 30
0.0
 10
18.132355591
 20
12.7336189741
 30
0.0
 10
18.1305525097
 20
12.7218848624
 30
0.0
 10
18.1287387041
 20
12.710161083
 30
0.0
 10
18.1272455127
 20
12.700377293
 30
0.0
 10
18.1261665127
 20
12.6935534647
 30
0.0
 10
18.125602332
 20
12.6896157697
 30
0.0
 10
18.1252353977
 20
12.6855336774
 30
0.0
 10
18.1247091928
 20
12.6804805035
 30
0.0
 10
18.1239050086
 20
12.6723677945
 30
0.0
 10
18.1228868494
 20
12.6622363731
 30
0.0
 10
18.121265053
 20
12.6460207853
 30
0.0
 10
18.1200470725
 20
12.6338602899
 30
0.0
 10
18.1192354485
 20
12.6257530274
 30
0.0
  0
LINE
  5
329
100
AcDbEntity
  8
02__ASM_ALL_AXES
100
AcDbLine
 62
7
  6
BYLAYER
 10
18.1192354482
 20
12.6257530233
 11
18.1188242602
 21
12.6200695372
  0
SPLINE
  5
32A
100
AcDbEntity
  8
02__ASM_ALL_AXES
100
AcDbSpline
 62
7
  6
BYLAYER
 70
0
 71
3
 72
43
 73
39
 74
0
 42
0.0000001
 43
0.0000001
 44
0.0000000001
 40
0.0
 40
0.0
 40
0.0
 40
0.0
 40
0.0625
 40
0.125
 40
0.15625
 40
0.171875
 40
0.1875
 40
0.21875
 40
0.25
 40
0.28125
 40
0.3125
 40
0.328125
 40
0.34375
 40
0.359375
 40
0.375
 40
0.40625
 40
0.4375
 40
0.46875
 40
0.484375
 40
0.4921875
 40
0.5
 40
0.5078125
 40
0.515625
 40
0.53125
 40
0.5625
 40
0.625
 40
0.65625
 40
0.671875
 40
0.6875
 40
0.71875
 40
0.75
 40
0.78125
 40
0.8125
 40
0.828125
 40
0.84375
 40
0.875
 40
0.9375
 40
1.0
 40
1.0
 40
1.0
 40
1.0
 10
18.118741974
 20
12.6188894105
 30
0.0
 10
18.1184260885
 20
12.6126328768
 30
0.0
 10
18.1177900134
 20
12.6001207146
 30
0.0
 10
18.1170164398
 20
12.5844759861
 30
0.0
 10
18.1164353949
 20
12.5735329923
 30
0.0
 10
18.1161647017
 20
12.5672669543
 30
0.0
 10
18.1161251193
 20
12.5609522002
 30
0.0
 10
18.1159958068
 20
12.5530759671
 30
0.0
 10
18.1158771715
 20
12.5436149553
 30
0.0
 10
18.1157401124
 20
12.5341645368
 30
0.0
 10
18.1156568593
 20
12.5262618205
 30
0.0
 10
18.115525158
 20
12.5200000328
 30
0.0
 10
18.1156031008
 20
12.5151389565
 30
0.0
 10
18.1157306037
 20
12.5102316798
 30
0.0
 10
18.1158832525
 20
12.5037047268
 30
0.0
 10
18.1160803267
 20
12.4955409172
 30
0.0
 10
18.1163127847
 20
12.4857447901
 30
0.0
 10
18.1165115856
 20
12.4775866937
 30
0.0
 10
18.1166418295
 20
12.4718646118
 30
0.0
 10
18.1167300147
 20
12.4686128155
 30
0.0
 10
18.1167574208
 20
12.466123335
 30
0.0
 10
18.116932878
 20
12.4638274053
 30
0.0
 10
18.1171151626
 20
12.4606986476
 30
0.0
 10
18.1174583936
 20
12.4552548333
 30
0.0
 10
18.118125267
 20
12.4443435344
 30
0.0
 10
18.1189109503
 20
12.4318917365
 30
0.0
 10
18.1195562133
 20
12.4209721565
 30
0.0
 10
18.1199855238
 20
12.4147648505
 30
0.0
 10
18.120641845
 20
12.4086782923
 30
0.0
 10
18.1213837506
 20
12.401028881
 30
0.0
 10
18.1223103019
 20
12.3918662907
 30
0.0
 10
18.1232173883
 20
12.3827028289
 30
0.0
 10
18.1240079562
 20
12.3750555964
 30
0.0
 10
18.1245669528
 20
12.3689646805
 30
0.0
 10
18.12539205
 20
12.3627750954
 30
0.0
 10
18.1269595653
 20
12.3518974302
 30
0.0
 10
18.1291338227
 20
12.3363820617
 30
0.0
 10
18.1308930534
 20
12.3239624059
 30
0.0
 10
18.1317701907
 20
12.3177534981
 30
0.0
  0
LINE
  5
32B
100
AcDbEntity
  8
02__ASM_ALL_AXES
100
AcDbLine
 62
7
  6
BYLAYER
 10
18.1325889021
 20
12.3128133493
 11
18.1348717182
 21
12.2997132828
  0
SPLINE
  5
32C
100
AcDbEntity
  8
02__ASM_ALL_AXES
100
AcDbSpline
 62
7
  6
BYLAYER
 70
0
 71
3
 72
38
 73
34
 74
0
 42
0.0000001
 43
0.0000001
 44
0.0000000001
 40
0.0
 40
0.0
 40
0.0
 40
0.0
 40
0.0625
 40
0.125
 40
0.15625
 40
0.171875
 40
0.1875
 40
0.25
 40
0.28125
 40
0.3125
 40
0.328125
 40
0.34375
 40
0.375
 40
0.4375
 40
0.46875
 40
0.484375
 40
0.5
 40
0.515625
 40
0.53125
 40
0.5625
 40
0.625
 40
0.65625
 40
0.671875
 40
0.6875
 40
0.71875
 40
0.75
 40
0.78125
 40
0.8125
 40
0.828125
 40
0.84375
 40
0.875
 40
0.9375
 40
1.0
 40
1.0
 40
1.0
 40
1.0
 10
18.1353195004
 20
12.2972497057
 30
0.0
 10
18.1361950351
 20
12.2928873656
 30
0.0
 10
18.1379428238
 20
12.2841630265
 30
0.0
 10
18.1401439623
 20
12.2732558971
 30
0.0
 10
18.1416546195
 20
12.2656240404
 30
0.0
 10
18.1425645995
 20
12.2612581186
 30
0.0
 10
18.1441838828
 20
12.2546821073
 30
0.0
 10
18.1459888927
 20
12.24702284
 30
0.0
 10
18.1480859759
 20
12.2382528201
 30
0.0
 10
18.1494072919
 20
12.2327984197
 30
0.0
 10
18.1504302575
 20
12.2283745734
 30
0.0
 10
18.1515810608
 20
12.2241705414
 30
0.0
 10
18.1536540372
 20
12.216914578
 30
0.0
 10
18.1560012773
 20
12.2085857266
 30
0.0
 10
18.1580534658
 20
12.2012922338
 30
0.0
 10
18.1592399056
 20
12.197152538
 30
0.0
 10
18.1600889238
 20
12.1939653652
 30
0.0
 10
18.1610943084
 20
12.1910937887
 30
0.0
 10
18.1623803903
 20
12.1871552014
 30
0.0
 10
18.1646552755
 20
12.1803111829
 30
0.0
 10
18.1672522067
 20
12.1724862679
 30
0.0
 10
18.1695079909
 20
12.1655993044
 30
0.0
 10
18.1708268174
 20
12.161734337
 30
0.0
 10
18.1722591291
 20
12.1581369193
 30
0.0
 10
18.1740101805
 20
12.1535480158
 30
0.0
 10
18.1761300382
 20
12.1480822377
 30
0.0
 10
18.178238453
 20
12.1426002456
 30
0.0
 10
18.1800181116
 20
12.1380518769
 30
0.0
 10
18.1813932087
 20
12.1343733895
 30
0.0
 10
18.1829447081
 20
12.1308381056
 30
0.0
 10
18.1857417765
 20
12.1247178277
 30
0.0
 10
18.1896944598
 20
12.1159395898
 30
0.0
 10
18.1928697504
 20
12.1089276613
 30
0.0
 10
18.1944557527
 20
12.1054203643
 30
0.0
  0
LINE
  5
32D
100
AcDbEntity
  8
02__ASM_ALL_AXES
100
AcDbLine
 62
7
  6
BYLAYER
 10
18.1944557545
 20
12.1054203606
 11
18.2019072361
 21
12.0909225359
  0
SPLINE
  5
32E
100
AcDbEntity
  8
02__ASM_ALL_AXES
100
AcDbSpline
 62
7
  6
BYLAYER
 70
0
 71
3
 72
27
 73
23
 74
0
 42
0.0000001
 43
0.0000001
 44
0.0000000001
 40
0.0
 40
0.0
 40
0.0
 40
0.0
 40
0.125
 40
0.15625
 40
0.1875
 40
0.25
 40
0.3125
 40
0.34375
 40
0.375
 40
0.4375
 40
0.46875
 40
0.5
 40
0.53125
 40
0.5625
 40
0.625
 40
0.65625
 40
0.6875
 40
0.75
 40
0.8125
 40
0.84375
 40
0.875
 40
1.0
 40
1.0
 40
1.0
 40
1.0
 10
18.2019072363
 20
12.0909225355
 30
0.0
 10
18.2035522296
 20
12.0879903347
 30
0.0
 10
18.2056388964
 20
12.0843127929
 30
0.0
 10
18.2080516208
 20
12.0799366154
 30
0.0
 10
18.2098548254
 20
12.0769405017
 30
0.0
 10
18.2121795674
 20
12.0731742827
 30
0.0
 10
18.2144731327
 20
12.0693931635
 30
0.0
 10
18.2163262199
 20
12.06642089
 30
0.0
 10
18.2182262839
 20
12.0636517151
 30
0.0
 10
18.2201111781
 20
12.0608163233
 30
0.0
 10
18.2220063492
 20
12.0580272583
 30
0.0
 10
18.2234120668
 20
12.0558626961
 30
0.0
 10
18.2248752886
 20
12.0539660243
 30
0.0
 10
18.2268054685
 20
12.0513399767
 30
0.0
 10
18.2287453355
 20
12.0487610594
 30
0.0
 10
18.230671728
 20
12.0461136152
 30
0.0
 10
18.2326391024
 20
12.0436774383
 30
0.0
 10
18.2351136259
 20
12.0407108651
 30
0.0
 10
18.2375776419
 20
12.0376914476
 30
0.0
 10
18.2395618281
 20
12.0353398217
 30
0.0
 10
18.2426007682
 20
12.0321196692
 30
0.0
 10
18.2451169004
 20
12.0293561863
 30
0.0
 10
18.2471350279
 20
12.0271710072
 30
0.0
  0
SPLINE
  5
32F
100
AcDbEntity
  8
02__ASM_ALL_AXES
100
AcDbSpline
 62
7
  6
BYLAYER
 70
0
 71
3
 72
71
 73
67
 74
0
 42
0.0000001
 43
0.0000001
 44
0.0000000001
 40
0.0
 40
0.0
 40
0.0
 40
0.0
 40
0.0625
 40
0.09375
 40
0.125
 40
0.140625
 40
0.15625
 40
0.1640625
 40
0.16796875
 40
0.171875
 40
0.1796875
 40
0.1875
 40
0.203125
 40
0.21875
 40
0.25
 40
0.28125
 40
0.296875
 40
0.3125
 40
0.3203125
 40
0.328125
 40
0.33203125
 40
0.3359375
 40
0.34375
 40
0.359375
 40
0.375
 40
0.390625
 40
0.40625
 40
0.4375
 40
0.453125
 40
0.46875
 40
0.484375
 40
0.4921875
 40
0.49609375
 40
0.5
 40
0.50390625
 40
0.5078125
 40
0.515625
 40
0.53125
 40
0.546875
 40
0.5625
 40
0.59375
 40
0.609375
 40
0.625
 40
0.640625
 40
0.65625
 40
0.6640625
 40
0.66796875
 40
0.671875
 40
0.6796875
 40
0.6875
 40
0.703125
 40
0.71875
 40
0.75
 40
0.78125
 40
0.796875
 40
0.8125
 40
0.8203125
 40
0.828125
 40
0.83203125
 40
0.8359375
 40
0.84375
 40
0.859375
 40
0.875
 40
0.90625
 40
0.9375
 40
1.0
 40
1.0
 40
1.0
 40
1.0
 10
18.2471350271
 20
12.027171008
 30
0.0
 10
18.2503366655
 20
12.0245060419
 30
0.0
 10
18.2551391755
 20
12.0205091215
 30
0.0
 10
18.2615423128
 20
12.0151777793
 30
0.0
 10
18.2655447097
 20
12.0118500968
 30
0.0
 10
18.2687456329
 20
12.0091779041
 30
0.0
 10
18.2707484776
 20
12.0075306971
 30
0.0
 10
18.2721459242
 20
12.0063317318
 30
0.0
 10
18.2729515758
 20
12.0057184555
 30
0.0
 10
18.2737840143
 20
12.0053758362
 30
0.0
 10
18.2748153905
 20
12.0048548895
 30
0.0
 10
18.2764707184
 20
12.0040731657
 30
0.0
 10
18.2785381221
 20
12.0030782698
 30
0.0
 10
18.2818469553
 20
12.0014963975
 30
0.0
 10
18.2859826163
 20
11.9995153134
 30
0.0
 10
18.2901185652
 20
11.9975367526
 30
0.0
 10
18.2934269379
 20
11.995950843
 30
0.0
 10
18.2954954928
 20
11.9949660404
 30
0.0
 10
18.2971484608
 20
11.9941636253
 30
0.0
 10
18.2981858444
 20
11.993695353
 30
0.0
 10
18.2990059516
 20
11.9932446092
 30
0.0
 10
18.2998618348
 20
11.9930717797
 30
0.0
 10
18.3013762523
 20
11.9928984513
 30
0.0
 10
18.3035310145
 20
11.9925833214
 30
0.0
 10
18.3061204546
 20
11.9922341127
 30
0.0
 10
18.3087088993
 20
11.9918771437
 30
0.0
 10
18.3121605006
 20
11.991403977
 30
0.0
 10
18.3156120422
 20
11.9909295794
 30
0.0
 10
18.3190635065
 20
11.9904567804
 30
0.0
 10
18.3216523965
 20
11.9900986162
 30
0.0
 10
18.3238088643
 20
11.9898113633
 30
0.0
 10
18.3253202393
 20
11.9895882896
 30
0.0
 10
18.3261809972
 20
11.9894951624
 30
0.0
 10
18.3268346925
 20
11.9893285714
 30
0.0
 10
18.3274573227
 20
11.9895317909
 30
0.0
 10
18.3282983322
 20
11.9896737562
 30
0.0
 10
18.3297650502
 20
11.9899822965
 30
0.0
 10
18.3318630011
 20
11.9903916444
 30
0.0
 10
18.3343794124
 20
11.9908963232
 30
0.0
 10
18.3377350217
 20
11.9915644725
 30
0.0
 10
18.3410905254
 20
11.9922342341
 30
0.0
 10
18.3444460502
 20
11.9929027254
 30
0.0
 10
18.3469627363
 20
11.9934062924
 30
0.0
 10
18.3494792415
 20
11.9939017005
 30
0.0
 10
18.351576897
 20
11.9943399049
 30
0.0
 10
18.3530441426
 20
11.9945969523
 30
0.0
 10
18.3538843066
 20
11.9948214199
 30
0.0
 10
18.3547310169
 20
11.9953381099
 30
0.0
 10
18.3557871634
 20
11.9958839158
 30
0.0
 10
18.3574782502
 20
11.9968131227
 30
0.0
 10
18.3595916807
 20
11.9979554771
 30
0.0
 10
18.3629734038
 20
11.9997939959
 30
0.0
 10
18.3672005127
 20
12.0020881225
 30
0.0
 10
18.3714275086
 20
12.0043848973
 30
0.0
 10
18.3748094125
 20
12.006219179
 30
0.0
 10
18.3769223909
 20
12.0073721262
 30
0.0
 10
18.3786144045
 20
12.0082796179
 30
0.0
 10
18.3796681918
 20
12.0088807047
 30
0.0
 10
18.3805197447
 20
12.00928392
 30
0.0
 10
18.3813401822
 20
12.0099706283
 30
0.0
 10
18.3827614936
 20
12.0113040624
 30
0.0
 10
18.3847994799
 20
12.0131402566
 30
0.0
 10
18.3880560434
 20
12.0161165674
 30
0.0
 10
18.3921281915
 20
12.0198238021
 30
0.0
 10
18.3986428179
 20
12.0257627621
 30
0.0
 10
18.4035289701
 20
12.0302153206
 30
0.0
 10
18.4067863643
 20
12.0331840622
 30
0.0
  0
SPLINE
  5
330
100
AcDbEntity
  8
02__ASM_ALL_AXES
100
AcDbSpline
 62
7
  6
BYLAYER
 70
0
 71
3
 72
65
 73
61
 74
0
 42
0.0000001
 43
0.0000001
 44
0.0000000001
 40
0.0
 40
0.0
 40
0.0
 40
0.0
 40
0.0625
 40
0.09375
 40
0.125
 40
0.140625
 40
0.15625
 40
0.1640625
 40
0.16796875
 40
0.171875
 40
0.1796875
 40
0.1875
 40
0.203125
 40
0.21875
 40
0.25
 40
0.28125
 40
0.3125
 40
0.3203125
 40
0.328125
 40
0.33203125
 40
0.3359375
 40
0.34375
 40
0.359375
 40
0.375
 40
0.40625
 40
0.4375
 40
0.453125
 40
0.46875
 40
0.484375
 40
0.4921875
 40
0.49609375
 40
0.5
 40
0.50390625
 40
0.5078125
 40
0.515625
 40
0.53125
 40
0.546875
 40
0.5625
 40
0.59375
 40
0.625
 40
0.640625
 40
0.65625
 40
0.6640625
 40
0.671875
 40
0.6796875
 40
0.6875
 40
0.71875
 40
0.75
 40
0.78125
 40
0.8125
 40
0.8203125
 40
0.828125
 40
0.83203125
 40
0.8359375
 40
0.84375
 40
0.859375
 40
0.875
 40
0.90625
 40
0.9375
 40
1.0
 40
1.0
 40
1.0
 40
1.0
 10
18.4067863658
 20
12.0331840638
 30
0.0
 10
18.409784092
 20
12.0371131908
 30
0.0
 10
18.4142805729
 20
12.0430073504
 30
0.0
 10
18.420276315
 20
12.050864354
 30
0.0
 10
18.4240227489
 20
12.055778889
 30
0.0
 10
18.4270219594
 20
12.0597016075
 30
0.0
 10
18.42889176
 20
12.0621736265
 30
0.0
 10
18.4302100515
 20
12.0638633168
 30
0.0
 10
18.4309486052
 20
12.064892569
 30
0.0
 10
18.4316315718
 20
12.0661618443
 30
0.0
 10
18.4325043129
 20
12.0676662555
 30
0.0
 10
18.4338900631
 20
12.0701192382
 30
0.0
 10
18.4356258863
 20
12.0731697619
 30
0.0
 10
18.4384012077
 20
12.0780592596
 30
0.0
 10
18.4418707862
 20
12.0841690033
 30
0.0
 10
18.4460352249
 20
12.0914979223
 30
0.0
 10
18.4491552085
 20
12.0970054859
 30
0.0
 10
18.4512404781
 20
12.1006599378
 30
0.0
 10
18.4521014689
 20
12.1022083673
 30
0.0
 10
18.4528086251
 20
12.1033870577
 30
0.0
 10
18.4534486245
 20
12.1047853682
 30
0.0
 10
18.4545374211
 20
12.107334452
 30
0.0
 10
18.4561091243
 20
12.1109227627
 30
0.0
 10
18.4586147543
 20
12.1166938004
 30
0.0
 10
18.4617498867
 20
12.1238974941
 30
0.0
 10
18.4648840081
 20
12.1311044255
 30
0.0
 10
18.4673912558
 20
12.136870283
 30
0.0
 10
18.4692724466
 20
12.1411917962
 30
0.0
 10
18.4708376092
 20
12.1448025267
 30
0.0
 10
18.4719381351
 20
12.1473114121
 30
0.0
 10
18.4725593353
 20
12.1487741503
 30
0.0
 10
18.4730468473
 20
12.1497892576
 30
0.0
 10
18.4734517477
 20
12.1511176056
 30
0.0
 10
18.4740204307
 20
12.1527794745
 30
0.0
 10
18.4750022012
 20
12.155738651
 30
0.0
 10
18.4764117413
 20
12.1599394412
 30
0.0
 10
18.4781002221
 20
12.1649917362
 30
0.0
 10
18.4803523988
 20
12.1717243703
 30
0.0
 10
18.4831685212
 20
12.1801399904
 30
0.0
 10
18.4859799513
 20
12.188561
 30
0.0
 10
18.4882396358
 20
12.1952850107
 30
0.0
 10
18.4896279338
 20
12.199516815
 30
0.0
 10
18.4907935484
 20
12.2028351435
 30
0.0
 10
18.4915172338
 20
12.2055076562
 30
0.0
 10
18.4921987399
 20
12.2082316618
 30
0.0
 10
18.4935834437
 20
12.2136531971
 30
0.0
 10
18.4956514703
 20
12.2217964431
 30
0.0
 10
18.4984136109
 20
12.232648693
 30
0.0
 10
18.5011759263
 20
12.2434992436
 30
0.0
 10
18.5032435595
 20
12.2516463129
 30
0.0
 10
18.504628766
 20
12.257062963
 30
0.0
 10
18.505195768
 20
12.2593419062
 30
0.0
 10
18.5056730929
 20
12.26111372
 30
0.0
 10
18.5060636584
 20
12.2630732923
 30
0.0
 10
18.5067068375
 20
12.266589781
 30
0.0
 10
18.5076466968
 20
12.2715678202
 30
0.0
 10
18.5091387177
 20
12.27955812
 30
0.0
 10
18.5110077702
 20
12.2895372813
 30
0.0
 10
18.5139959938
 20
12.3055088311
 30
0.0
 10
18.5162376701
 20
12.3174863928
 30
0.0
 10
18.5177320079
 20
12.3254716786
 30
0.0
  0
SPLINE
  5
331
100
AcDbEntity
  8
02__ASM_ALL_AXES
100
AcDbSpline
 62
7
  6
BYLAYER
 70
0
 71
3
 72
15
 73
11
 74
0
 42
0.0000001
 43
0.0000001
 44
0.0000000001
 40
0.0
 40
0.0
 40
0.0
 40
0.0
 40
0.125
 40
0.25
 40
0.5
 40
0.625
 40
0.75
 40
0.8125
 40
0.875
 40
1.0
 40
1.0
 40
1.0
 40
1.0
 10
18.5180212741
 20
12.3273319822
 30
0.0
 10
18.5186020042
 20
12.3312661422
 30
0.0
 10
18.5197878029
 20
12.3391119211
 30
0.0
 10
18.5219646909
 20
12.3549838077
 30
0.0
 10
18.5240019895
 20
12.3709865879
 30
0.0
 10
18.5257264243
 20
12.3872225333
 30
0.0
 10
18.5267168394
 20
12.3974379783
 30
0.0
 10
18.5274980059
 20
12.4055869104
 30
0.0
 10
18.5281943616
 20
12.4139071663
 30
0.0
 10
18.5286944953
 20
12.4201882372
 30
0.0
 10
18.5290328362
 20
12.4243665335
 30
0.0
  0
SPLINE
  5
332
100
AcDbEntity
  8
02__ASM_ALL_AXES
100
AcDbSpline
 62
7
  6
BYLAYER
 70
0
 71
3
 72
50
 73
46
 74
0
 42
0.0000001
 43
0.0000001
 44
0.0000000001
 40
0.0
 40
0.0
 40
0.0
 40
0.0
 40
0.0625
 40
0.125
 40
0.140625
 40
0.15625
 40
0.1640625
 40
0.171875
 40
0.1875
 40
0.21875
 40
0.25
 40
0.28125
 40
0.3125
 40
0.328125
 40
0.3359375
 40
0.34375
 40
0.359375
 40
0.375
 40
0.4375
 40
0.46875
 40
0.484375
 40
0.4921875
 40
0.5
 40
0.5078125
 40
0.515625
 40
0.53125
 40
0.5625
 40
0.625
 40
0.640625
 40
0.65625
 40
0.6640625
 40
0.671875
 40
0.6875
 40
0.71875
 40
0.75
 40
0.78125
 40
0.8125
 40
0.828125
 40
0.8359375
 40
0.84375
 40
0.859375
 40
0.875
 40
0.90625
 40
0.9375
 40
1.0
 40
1.0
 40
1.0
 40
1.0
 10
18.5290328359
 20
12.4243665297
 30
0.0
 10
18.5294451927
 20
12.4327090401
 30
0.0
 10
18.530272393
 20
12.4493936553
 30
0.0
 10
18.5311918025
 20
12.4681656726
 30
0.0
 10
18.5318210623
 20
12.4806776891
 30
0.0
 10
18.5320591621
 20
12.4858949584
 30
0.0
 10
18.5323058302
 20
12.4900596103
 30
0.0
 10
18.5323470191
 20
12.4942577733
 30
0.0
 10
18.53232357
 20
12.501620124
 30
0.0
 10
18.5323403501
 20
12.5121296809
 30
0.0
 10
18.5323375016
 20
12.5247443883
 30
0.0
 10
18.5323461456
 20
12.5373590783
 30
0.0
 10
18.5323341943
 20
12.547868679
 30
0.0
 10
18.5323610251
 20
12.5552309531
 30
0.0
 10
18.5323217663
 20
12.5594292386
 30
0.0
 10
18.5320770065
 20
12.5635946325
 30
0.0
 10
18.5318413445
 20
12.5688126375
 30
0.0
 10
18.5312174965
 20
12.5813264023
 30
0.0
 10
18.5305133447
 20
12.5959308962
 30
0.0
 10
18.5297891573
 20
12.6105283514
 30
0.0
 10
18.5294429145
 20
12.617834576
 30
0.0
 10
18.5292207507
 20
12.621997715
 30
0.0
 10
18.5291225314
 20
12.6251534669
 30
0.0
 10
18.5287628532
 20
12.6281815512
 30
0.0
 10
18.5283744865
 20
12.632263535
 30
0.0
 10
18.527652307
 20
12.6393861937
 30
0.0
 10
18.5262395803
 20
12.6536474423
 30
0.0
 10
18.5248072102
 20
12.6678963549
 30
0.0
 10
18.5235989628
 20
12.6801247634
 30
0.0
 10
18.5230723832
 20
12.6852007165
 30
0.0
 10
18.5227047132
 20
12.6893060946
 30
0.0
 10
18.522141183
 20
12.6932483838
 30
0.0
 10
18.5210639557
 20
12.7000715579
 30
0.0
 10
18.5195729651
 20
12.7098589591
 30
0.0
 10
18.5177619424
 20
12.7215851249
 30
0.0
 10
18.5159616071
 20
12.7333221381
 30
0.0
 10
18.5144438978
 20
12.7430824206
 30
0.0
 10
18.5134134284
 20
12.7499530523
 30
0.0
 10
18.5127750855
 20
12.7538194094
 30
0.0
 10
18.5119503775
 20
12.7574609106
 30
0.0
 10
18.5109833037
 20
12.7620897775
 30
0.0
 10
18.5094003242
 20
12.7694529378
 30
0.0
 10
18.5074338156
 20
12.7786716269
 30
0.0
 10
18.5042805438
 20
12.793413255
 30
0.0
 10
18.5019171331
 20
12.8044713379
 30
0.0
 10
18.500341183
 20
12.8118429794
 30
0.0
  0
LINE
  5
333
100
AcDbEntity
  8
02__ASM_ALL_AXES
100
AcDbLine
 62
7
  6
BYLAYER
 10
18.500341184
 20
12.8118429753
 11
18.4980986679
 21
12.8207333476
  0
LINE
  5
334
100
AcDbEntity
  8
02__ASM_ALL_AXES
100
AcDbLine
 62
7
  6
BYLAYER
 10
18.4980986678
 20
12.8207333478
 11
18.4955100045
 21
12.8305396395
  0
SPLINE
  5
335
100
AcDbEntity
  8
02__ASM_ALL_AXES
100
AcDbSpline
 62
7
  6
BYLAYER
 70
0
 71
3
 72
29
 73
25
 74
0
 42
0.0000001
 43
0.0000001
 44
0.0000000001
 40
0.0
 40
0.0
 40
0.0
 40
0.0
 40
0.0625
 40
0.125
 40
0.15625
 40
0.1875
 40
0.25
 40
0.3125
 40
0.34375
 40
0.375
 40
0.4375
 40
0.46875
 40
0.5
 40
0.53125
 40
0.5625
 40
0.625
 40
0.65625
 40
0.6875
 40
0.75
 40
0.8125
 40
0.84375
 40
0.875
 40
0.9375
 40
1.0
 40
1.0
 40
1.0
 40
1.0
 10
18.4955100045
 20
12.8305396394
 30
0.0
 10
18.4948134075
 20
12.8329957579
 30
0.0
 10
18.4934255328
 20
12.8379029578
 30
0.0
 10
18.4916640927
 20
12.844062143
 30
0.0
 10
18.4903107938
 20
12.8489366021
 30
0.0
 10
18.4887553595
 20
12.8540024691
 30
0.0
 10
18.4867383393
 20
12.8603935701
 30
0.0
 10
18.4847585886
 20
12.8667864134
 30
0.0
 10
18.4831435232
 20
12.8718494926
 30
0.0
 10
18.481433376
 20
12.8767034334
 30
0.0
 10
18.4797540063
 20
12.8816258197
 30
0.0
 10
18.4780536155
 20
12.8864997233
 30
0.0
 10
18.4768106083
 20
12.8902321535
 30
0.0
 10
18.4754489678
 20
12.8936808151
 30
0.0
 10
18.4736763572
 20
12.8983820655
 30
0.0
 10
18.4718835524
 20
12.903032644
 30
0.0
 10
18.4701191478
 20
12.9077579618
 30
0.0
 10
18.4682680679
 20
12.912251885
 30
0.0
 10
18.4659172528
 20
12.9177928833
 30
0.0
 10
18.4636054662
 20
12.923355934
 30
0.0
 10
18.4616919407
 20
12.9278145734
 30
0.0
 10
18.4595539436
 20
12.9323257566
 30
0.0
 10
18.4569589785
 20
12.9379465873
 30
0.0
 10
18.4548593779
 20
12.9424487828
 30
0.0
 10
18.4538125312
 20
12.9446991891
 30
0.0
  0
SPLINE
  5
336
100
AcDbEntity
  8
02__ASM_ALL_AXES
100
AcDbSpline
 62
7
  6
BYLAYER
 70
0
 71
3
 72
74
 73
70
 74
0
 42
0.0000001
 43
0.0000001
 44
0.0000000001
 40
0.0
 40
0.0
 40
0.0
 40
0.0
 40
0.0625
 40
0.09375
 40
0.125
 40
0.140625
 40
0.15625
 40
0.1640625
 40
0.16796875
 40
0.171875
 40
0.1796875
 40
0.1875
 40
0.203125
 40
0.21875
 40
0.25
 40
0.28125
 40
0.296875
 40
0.3125
 40
0.3203125
 40
0.328125
 40
0.33203125
 40
0.3359375
 40
0.34375
 40
0.359375
 40
0.375
 40
0.390625
 40
0.40625
 40
0.4375
 40
0.453125
 40
0.46875
 40
0.484375
 40
0.4921875
 40
0.49609375
 40
0.5
 40
0.50390625
 40
0.5078125
 40
0.515625
 40
0.53125
 40
0.546875
 40
0.5625
 40
0.59375
 40
0.609375
 40
0.625
 40
0.640625
 40
0.65625
 40
0.66015625
 40
0.6640625
 40
0.66796875
 40
0.671875
 40
0.6796875
 40
0.6875
 40
0.703125
 40
0.71875
 40
0.75
 40
0.78125
 40
0.796875
 40
0.8125
 40
0.8203125
 40
0.828125
 40
0.83203125
 40
0.8359375
 40
0.83984375
 40
0.84375
 40
0.859375
 40
0.875
 40
0.890625
 40
0.90625
 40
0.9375
 40
1.0
 40
1.0
 40
1.0
 40
1.0
 10
17.1895384076
 20
13.8770410219
 30
0.0
 10
17.1881540463
 20
13.8707659295
 30
0.0
 10
17.1860780622
 20
13.8613533599
 30
0.0
 10
17.1833078517
 20
13.848802991
 30
0.0
 10
17.1815811195
 20
13.8409595856
 30
0.0
 10
17.1801891332
 20
13.83468355
 30
0.0
 10
17.1793433184
 20
13.8307640184
 30
0.0
 10
17.1787027959
 20
13.8280143526
 30
0.0
 10
17.178412591
 20
13.8264524927
 30
0.0
 10
17.1784079661
 20
13.8249259601
 30
0.0
 10
17.1783044028
 20
13.8230056983
 30
0.0
 10
17.1781933479
 20
13.8199400393
 30
0.0
 10
17.1780358099
 20
13.8161056499
 30
0.0
 10
17.1777942599
 20
13.8099719272
 30
0.0
 10
17.1774883695
 20
13.8023042845
 30
0.0
 10
17.1771851524
 20
13.7946369738
 30
0.0
 10
17.1769393251
 20
13.7885027198
 30
0.0
 10
17.1767924803
 20
13.7846696588
 30
0.0
 10
17.1766595045
 20
13.7816012766
 30
0.0
 10
17.1766117459
 20
13.7796879474
 30
0.0
 10
17.1764925711
 20
13.7781471843
 30
0.0
 10
17.1766689867
 20
13.7766432922
 30
0.0
 10
17.1771150498
 20
13.774028612
 30
0.0
 10
17.1776804706
 20
13.7702843965
 30
0.0
 10
17.1783897636
 20
13.7657951801
 30
0.0
 10
17.1790908042
 20
13.7613049282
 30
0.0
 10
17.1800284872
 20
13.7553183252
 30
0.0
 10
17.1809649012
 20
13.7493313956
 30
0.0
 10
17.1819029007
 20
13.7433451462
 30
0.0
 10
17.1826029127
 20
13.7388537451
 30
0.0
 10
17.183197221
 20
13.7351163409
 30
0.0
 10
17.1835917361
 20
13.7324895049
 30
0.0
 10
17.1838507422
 20
13.731005089
 30
0.0
 10
17.1839504331
 20
13.7298449212
 30
0.0
 10
17.1844115944
 20
13.7288638603
 30
0.0
 10
17.1849003912
 20
13.7274933046
 30
0.0
 10
17.1858145308
 20
13.7251239402
 30
0.0
 10
17.1870897321
 20
13.7217239159
 30
0.0
 10
17.1886331188
 20
13.7176504004
 30
0.0
 10
17.1906863805
 20
13.7122167719
 30
0.0
 10
17.1927408752
 20
13.7067837631
 30
0.0
 10
17.1947951112
 20
13.7013506012
 30
0.0
 10
17.1963353314
 20
13.6972755692
 30
0.0
 10
17.197877508
 20
13.6932012564
 30
0.0
 10
17.199028614
 20
13.6901434844
 30
0.0
 10
17.1998046173
 20
13.6881081406
 30
0.0
 10
17.2001772624
 20
13.6870848062
 30
0.0
 10
17.2006096139
 20
13.6860834875
 30
0.0
 10
17.201470176
 20
13.6848531502
 30
0.0
 10
17.2024486054
 20
13.6832793608
 30
0.0
 10
17.2040684543
 20
13.6807813429
 30
0.0
 10
17.2060746447
 20
13.6776519524
 30
0.0
 10
17.2092949979
 20
13.6726487938
 30
0.0
 10
17.2133165576
 20
13.6663933217
 30
0.0
 10
17.2173405842
 20
13.6601391123
 30
0.0
 10
17.2205569904
 20
13.6551339333
 30
0.0
 10
17.2225730486
 20
13.6520095939
 30
0.0
 10
17.2241726685
 20
13.6495012213
 30
0.0
 10
17.2252025954
 20
13.6479537925
 30
0.0
 10
17.2259574489
 20
13.6466693448
 30
0.0
 10
17.2267127544
 20
13.6458333404
 30
0.0
 10
17.2275210677
 20
13.6450330167
 30
0.0
 10
17.229110427
 20
13.6434140149
 30
0.0
 10
17.2315059184
 20
13.6409932213
 30
0.0
 10
17.2346933613
 20
13.6377610903
 30
0.0
 10
17.2378825551
 20
13.634530138
 30
0.0
 10
17.2421342026
 20
13.6302217903
 30
0.0
 10
17.249574872
 20
13.6226823746
 30
0.0
 10
17.2559524905
 20
13.6162199522
 30
0.0
 10
17.260204258
 20
13.6119116853
 30
0.0
  0
SPLINE
  5
337
100
AcDbEntity
  8
02__ASM_ALL_AXES
100
AcDbSpline
 62
7
  6
BYLAYER
 70
0
 71
3
 72
27
 73
23
 74
0
 42
0.0000001
 43
0.0000001
 44
0.0000000001
 40
0.0
 40
0.0
 40
0.0
 40
0.0
 40
0.125
 40
0.1875
 40
0.25
 40
0.28125
 40
0.3125
 40
0.34375
 40
0.375
 40
0.4375
 40
0.46875
 40
0.5
 40
0.53125
 40
0.5625
 40
0.625
 40
0.65625
 40
0.6875
 40
0.71875
 40
0.75
 40
0.8125
 40
0.875
 40
1.0
 40
1.0
 40
1.0
 40
1.0
 10
17.2602042584
 20
13.611911685
 30
0.0
 10
17.2619677509
 20
13.6105000263
 30
0.0
 10
17.2646038079
 20
13.6083750727
 30
0.0
 10
17.2681552776
 20
13.6055716631
 30
0.0
 10
17.2704529334
 20
13.6038892842
 30
0.0
 10
17.2722801092
 20
13.6025268678
 30
0.0
 10
17.2736365452
 20
13.6015127441
 30
0.0
 10
17.2750542391
 20
13.6004761224
 30
0.0
 10
17.277236901
 20
13.5989928066
 30
0.0
 10
17.2793441806
 20
13.5975287317
 30
0.0
 10
17.2814583044
 20
13.5960827993
 30
0.0
 10
17.2830987469
 20
13.5949246816
 30
0.0
 10
17.2845163686
 20
13.5940521665
 30
0.0
 10
17.2864794761
 20
13.5927903127
 30
0.0
 10
17.2884505543
 20
13.5915482564
 30
0.0
 10
17.2903430112
 20
13.5903206826
 30
0.0
 10
17.2919902469
 20
13.5893367572
 30
0.0
 10
17.2937020359
 20
13.5883331535
 30
0.0
 10
17.2959608222
 20
13.5870073483
 30
0.0
 10
17.2987999141
 20
13.585306789
 30
0.0
 10
17.3032897616
 20
13.5828383662
 30
0.0
 10
17.3066481347
 20
13.5810386198
 30
0.0
 10
17.3088890529
 20
13.5798273287
 30
0.0
  0
SPLINE
  5
338
100
AcDbEntity
  8
02__ASM_ALL_AXES
100
AcDbSpline
 62
7
  6
BYLAYER
 70
0
 71
3
 72
85
 73
81
 74
0
 42
0.0000001
 43
0.0000001
 44
0.0000000001
 40
0.0
 40
0.0
 40
0.0
 40
0.0
 40
0.0625
 40
0.09375
 40
0.109375
 40
0.125
 40
0.140625
 40
0.15625
 40
0.16015625
 40
0.1640625
 40
0.166015625
 40
0.16796875
 40
0.171875
 40
0.1796875
 40
0.1875
 40
0.203125
 40
0.21875
 40
0.25
 40
0.28125
 40
0.296875
 40
0.3125
 40
0.3203125
 40
0.328125
 40
0.33203125
 40
0.333984375
 40
0.3359375
 40
0.33984375
 40
0.34375
 40
0.359375
 40
0.375
 40
0.390625
 40
0.40625
 40
0.4375
 40
0.453125
 40
0.46875
 40
0.4765625
 40
0.484375
 40
0.4921875
 40
0.49609375
 40
0.498046875
 40
0.5
 40
0.501953125
 40
0.50390625
 40
0.5078125
 40
0.515625
 40
0.5234375
 40
0.53125
 40
0.546875
 40
0.5625
 40
0.59375
 40
0.609375
 40
0.625
 40
0.640625
 40
0.65625
 40
0.66015625
 40
0.6640625
 40
0.666015625
 40
0.66796875
 40
0.671875
 40
0.6796875
 40
0.6875
 40
0.703125
 40
0.71875
 40
0.75
 40
0.78125
 40
0.796875
 40
0.8125
 40
0.8203125
 40
0.828125
 40
0.83203125
 40
0.833984375
 40
0.8359375
 40
0.83984375
 40
0.84375
 40
0.859375
 40
0.875
 40
0.890625
 40
0.90625
 40
0.9375
 40
1.0
 40
1.0
 40
1.0
 40
1.0
 10
17.308889052
 20
13.5798273291
 30
0.0
 10
17.3165545364
 20
13.5768291819
 30
0.0
 10
17.3280527229
 20
13.5723319009
 30
0.0
 10
17.341467414
 20
13.5670852836
 30
0.0
 10
17.3491327515
 20
13.5640869159
 30
0.0
 10
17.3548823155
 20
13.5618389818
 30
0.0
 10
17.3606297361
 20
13.5595878315
 30
0.0
 10
17.3649463111
 20
13.557908486
 30
0.0
 10
17.3678146816
 20
13.5567748988
 30
0.0
 10
17.3690237435
 20
13.5563234385
 30
0.0
 10
17.3699585497
 20
13.5559135901
 30
0.0
 10
17.3710120034
 20
13.5556817684
 30
0.0
 10
17.3729106738
 20
13.555358796
 30
0.0
 10
17.375594298
 20
13.55485425
 30
0.0
 10
17.3799041705
 20
13.5540710949
 30
0.0
 10
17.3852860057
 20
13.5530838891
 30
0.0
 10
17.3939000286
 20
13.551508999
 30
0.0
 10
17.4046664305
 20
13.549538641
 30
0.0
 10
17.4154334809
 20
13.5475694654
 30
0.0
 10
17.4240464663
 20
13.5459926835
 30
0.0
 10
17.4294308952
 20
13.545010207
 30
0.0
 10
17.4337354507
 20
13.544217357
 30
0.0
 10
17.4364326104
 20
13.5437374915
 30
0.0
 10
17.4383069695
 20
13.5433701902
 30
0.0
 10
17.4393993927
 20
13.5432094248
 30
0.0
 10
17.4405722711
 20
13.5432336735
 30
0.0
 10
17.4420108691
 20
13.5432007458
 30
0.0
 10
17.4454861382
 20
13.5431737676
 30
0.0
 10
17.4506895353
 20
13.5431114392
 30
0.0
 10
17.4576328317
 20
13.5430408301
 30
0.0
 10
17.4645746739
 20
13.542966876
 30
0.0
 10
17.4738309744
 20
13.5428694502
 30
0.0
 10
17.4830871187
 20
13.542771636
 30
0.0
 10
17.4923433483
 20
13.5426741024
 30
0.0
 10
17.4981284086
 20
13.542612766
 30
0.0
 10
17.5027566353
 20
13.5425645338
 30
0.0
 10
17.5062273198
 20
13.5425260755
 30
0.0
 10
17.5091211009
 20
13.5425012918
 30
0.0
 10
17.5111437177
 20
13.5424696864
 30
0.0
 10
17.5123042297
 20
13.542473887
 30
0.0
 10
17.5131612863
 20
13.5424143283
 30
0.0
 10
17.5140692872
 20
13.5425944759
 30
0.0
 10
17.5152621852
 20
13.5427510605
 30
0.0
 10
17.5173580359
 20
13.5430640401
 30
0.0
 10
17.5203477799
 20
13.5434907868
 30
0.0
 10
17.5239373254
 20
13.5440116007
 30
0.0
 10
17.5287227389
 20
13.5447029737
 30
0.0
 10
17.5347047274
 20
13.5455682361
 30
0.0
 10
17.5442757853
 20
13.5469520519
 30
0.0
 10
17.5538468763
 20
13.5483361448
 30
0.0
 10
17.5634179606
 20
13.5497198594
 30
0.0
 10
17.5705962611
 20
13.5507585031
 30
0.0
 10
17.5777746158
 20
13.5517939048
 30
0.0
 10
17.5831582286
 20
13.5525795388
 30
0.0
 10
17.5867475422
 20
13.55308917
 30
0.0
 10
17.5882427348
 20
13.5533225347
 30
0.0
 10
17.5894397164
 20
13.553460195
 30
0.0
 10
17.5906336719
 20
13.553777166
 30
0.0
 10
17.5927216881
 20
13.5544151772
 30
0.0
 10
17.595705302
 20
13.5552831538
 30
0.0
 10
17.6004786741
 20
13.5566962087
 30
0.0
 10
17.6064455304
 20
13.5584542061
 30
0.0
 10
17.6159924176
 20
13.5612716728
 30
0.0
 10
17.6279260828
 20
13.5647917598
 30
0.0
 10
17.6398596269
 20
13.5683129936
 30
0.0
 10
17.649406708
 20
13.5711286254
 30
0.0
 10
17.6553730796
 20
13.57289121
 30
0.0
 10
17.6601474453
 20
13.5742948612
 30
0.0
 10
17.6631285299
 20
13.5751867771
 30
0.0
 10
17.6652210889
 20
13.5757817906
 30
0.0
 10
17.6664077625
 20
13.576167684
 30
0.0
 10
17.6675602574
 20
13.5767264058
 30
0.0
 10
17.6690125584
 20
13.5773657345
 30
0.0
 10
17.6724884656
 20
13.5789487437
 30
0.0
 10
17.6777063649
 20
13.5813028364
 30
0.0
 10
17.6846612557
 20
13.5844532984
 30
0.0
 10
17.691616764
 20
13.5876006383
 30
0.0
 10
17.7008905596
 20
13.5917981808
 30
0.0
 10
17.7171198029
 20
13.5991433695
 30
0.0
 10
17.7310305483
 20
13.6054394206
 30
0.0
 10
17.7403043862
 20
13.6096367492
 30
0.0
  0
LINE
  5
339
100
AcDbEntity
  8
02__ASM_ALL_AXES
100
AcDbLine
 62
7
  6
BYLAYER
 10
17.7403043735
 20
13.6096367423
 11
17.7443201077
 21
13.6118179248
  0
SPLINE
  5
33A
100
AcDbEntity
  8
02__ASM_ALL_AXES
100
AcDbSpline
 62
7
  6
BYLAYER
 70
0
 71
3
 72
31
 73
27
 74
0
 42
0.0000001
 43
0.0000001
 44
0.0000000001
 40
0.0
 40
0.0
 40
0.0
 40
0.0
 40
0.125
 40
0.1875
 40
0.25
 40
0.28125
 40
0.3125
 40
0.328125
 40
0.34375
 40
0.375
 40
0.4375
 40
0.46875
 40
0.484375
 40
0.5
 40
0.515625
 40
0.53125
 40
0.5625
 40
0.625
 40
0.65625
 40
0.671875
 40
0.6875
 40
0.71875
 40
0.75
 40
0.8125
 40
0.875
 40
1.0
 40
1.0
 40
1.0
 40
1.0
 10
17.7443201078
 20
13.6118179249
 30
0.0
 10
17.7478938775
 20
13.6138419742
 30
0.0
 10
17.7532640836
 20
13.616864859
 30
0.0
 10
17.7603861521
 20
13.6209481285
 30
0.0
 10
17.7647564156
 20
13.623627168
 30
0.0
 10
17.7682638976
 20
13.6257367059
 30
0.0
 10
17.7704684106
 20
13.6270759033
 30
0.0
 10
17.7721995951
 20
13.6281059177
 30
0.0
 10
17.7740506136
 20
13.6292847172
 30
0.0
 10
17.7773467746
 20
13.6314170846
 30
0.0
 10
17.78108337
 20
13.633822429
 30
0.0
 10
17.7843759325
 20
13.6359407104
 30
0.0
 10
17.7862331199
 20
13.6371436575
 30
0.0
 10
17.787692258
 20
13.6380644788
 30
0.0
 10
17.788898544
 20
13.6389146058
 30
0.0
 10
17.7905952424
 20
13.6400729279
 30
0.0
 10
17.7935221183
 20
13.642086818
 30
0.0
 10
17.7968925425
 20
13.6444042815
 30
0.0
 10
17.7998172742
 20
13.6464035641
 30
0.0
 10
17.8015176484
 20
13.6475869276
 30
0.0
 10
17.8033249474
 20
13.6489236346
 30
0.0
 10
17.8055483734
 20
13.6505413689
 30
0.0
 10
17.8091204712
 20
13.6531632128
 30
0.0
 10
17.8136187623
 20
13.6564020972
 30
0.0
 10
17.8205745151
 20
13.6617632655
 30
0.0
 10
17.8257397965
 20
13.6658186346
 30
0.0
 10
17.8291947692
 20
13.6685145489
 30
0.0
  0
SPLINE
  5
33B
100
AcDbEntity
  8
02__ASM_ALL_AXES
100
AcDbSpline
 62
7
  6
BYLAYER
 70
0
 71
3
 72
51
 73
47
 74
0
 42
0.0000001
 43
0.0000001
 44
0.0000000001
 40
0.0
 40
0.0
 40
0.0
 40
0.0
 40
0.0625
 40
0.09375
 40
0.125
 40
0.140625
 40
0.15625
 40
0.1640625
 40
0.171875
 40
0.1875
 40
0.21875
 40
0.25
 40
0.28125
 40
0.3125
 40
0.328125
 40
0.3359375
 40
0.34375
 40
0.359375
 40
0.375
 40
0.4375
 40
0.46875
 40
0.484375
 40
0.4921875
 40
0.5
 40
0.5078125
 40
0.515625
 40
0.53125
 40
0.5625
 40
0.625
 40
0.640625
 40
0.65625
 40
0.6640625
 40
0.671875
 40
0.6875
 40
0.71875
 40
0.75
 40
0.78125
 40
0.8125
 40
0.828125
 40
0.8359375
 40
0.84375
 40
0.859375
 40
0.875
 40
0.90625
 40
0.9375
 40
1.0
 40
1.0
 40
1.0
 40
1.0
 10
17.8291947688
 20
13.6685145486
 30
0.0
 10
17.8334233546
 20
13.6722187688
 30
0.0
 10
17.8397658304
 20
13.6777756428
 30
0.0
 10
17.8482240768
 20
13.6851826337
 30
0.0
 10
17.8535071224
 20
13.6898165328
 30
0.0
 10
17.8577412159
 20
13.6935133243
 30
0.0
 10
17.8603700609
 20
13.6958473736
 30
0.0
 10
17.862513135
 20
13.697660664
 30
0.0
 10
17.8645101874
 20
13.6996709067
 30
0.0
 10
17.8679371328
 20
13.7032803632
 30
0.0
 10
17.8728686563
 20
13.7083886867
 30
0.0
 10
17.8787694171
 20
13.7145400655
 30
0.0
 10
17.8846810278
 20
13.7206827505
 30
0.0
 10
17.8895854267
 20
13.7258128084
 30
0.0
 10
17.8930598401
 20
13.7293842297
 30
0.0
 10
17.8949809436
 20
13.7314553287
 30
0.0
 10
17.8966600425
 20
13.7336403997
 30
0.0
 10
17.898841694
 20
13.7363327614
 30
0.0
 10
17.9040090031
 20
13.7428266936
 30
0.0
 10
17.9100659071
 20
13.7503903183
 30
0.0
 10
17.9160977536
 20
13.7579636004
 30
0.0
 10
17.9191342371
 20
13.7617433331
 30
0.0
 10
17.9208377041
 20
13.7639136437
 30
0.0
 10
17.9222044292
 20
13.7655119603
 30
0.0
 10
17.9232304879
 20
13.7672227106
 30
0.0
 10
17.9247174017
 20
13.7694644925
 30
0.0
 10
17.9272640596
 20
13.7734058872
 30
0.0
 10
17.9323987826
 20
13.7812752563
 30
0.0
 10
17.9375068281
 20
13.7891520424
 30
0.0
 10
17.9419127424
 20
13.7958972657
 30
0.0
 10
17.943715261
 20
13.7987147563
 30
0.0
 10
17.9452343867
 20
13.8009526255
 30
0.0
 10
17.9464716922
 20
13.8032494028
 30
0.0
 10
17.9485059653
 20
13.8072961572
 30
0.0
 10
17.9514810103
 20
13.8130627462
 30
0.0
 10
17.9550196043
 20
13.8199895834
 30
0.0
 10
17.9585737334
 20
13.8269118811
 30
0.0
 10
17.9615099405
 20
13.8326898188
 30
0.0
 10
17.96361218
 20
13.8367167131
 30
0.0
 10
17.9647407391
 20
13.8390452665
 30
0.0
 10
17.965595523
 20
13.8414772632
 30
0.0
 10
17.9667577431
 20
13.8444818403
 30
0.0
 10
17.9685649077
 20
13.8493089576
 30
0.0
 10
17.9708418088
 20
13.8553360739
 30
0.0
 10
17.9744747759
 20
13.8649832665
 30
0.0
 10
17.9772017681
 20
13.8722178045
 30
0.0
 10
17.9790192591
 20
13.8770410202
 30
0.0
  0
SPLINE
  5
33C
100
AcDbEntity
  8
02__ASM_ALL_AXES
100
AcDbSpline
 62
7
  6
BYLAYER
 70
0
 71
3
 72
55
 73
51
 74
0
 42
0.0000001
 43
0.0000001
 44
0.0000000001
 40
0.0
 40
0.0
 40
0.0
 40
0.0
 40
0.0625
 40
0.09375
 40
0.125
 40
0.140625
 40
0.15625
 40
0.1640625
 40
0.171875
 40
0.1875
 40
0.21875
 40
0.25
 40
0.28125
 40
0.3125
 40
0.3203125
 40
0.328125
 40
0.3359375
 40
0.34375
 40
0.359375
 40
0.375
 40
0.4375
 40
0.46875
 40
0.484375
 40
0.4921875
 40
0.5
 40
0.5078125
 40
0.515625
 40
0.53125
 40
0.5625
 40
0.59375
 40
0.625
 40
0.640625
 40
0.65625
 40
0.6640625
 40
0.671875
 40
0.6796875
 40
0.6875
 40
0.71875
 40
0.75
 40
0.78125
 40
0.8125
 40
0.8203125
 40
0.828125
 40
0.8359375
 40
0.84375
 40
0.859375
 40
0.875
 40
0.90625
 40
0.9375
 40
1.0
 40
1.0
 40
1.0
 40
1.0
 10
17.9790192596
 20
13.8770410219
 30
0.0
 10
17.9801311715
 20
13.8815731006
 30
0.0
 10
17.9817982332
 20
13.8883713429
 30
0.0
 10
17.9840242065
 20
13.8974351686
 30
0.0
 10
17.9854087225
 20
13.903101096
 30
0.0
 10
17.9865316506
 20
13.9076314751
 30
0.0
 10
17.9871985511
 20
13.9104683509
 30
0.0
 10
17.9878120736
 20
13.9127255089
 30
0.0
 10
17.9881335315
 20
13.9150277261
 30
0.0
 10
17.9885604016
 20
13.919077548
 30
0.0
 10
17.989241044
 20
13.9248520085
 30
0.0
 10
17.9900279689
 20
13.931786291
 30
0.0
 10
17.9908209529
 20
13.9387184526
 30
0.0
 10
17.9914198982
 20
13.9439202389
 30
0.0
 10
17.9918102894
 20
13.9473843175
 30
0.0
 10
17.9920218939
 20
13.9491230264
 30
0.0
 10
17.9921696442
 20
13.9508358126
 30
0.0
 10
17.9920628254
 20
13.9529962058
 30
0.0
 10
17.9920332204
 20
13.9557388563
 30
0.0
 10
17.9918760086
 20
13.9622864567
 30
0.0
 10
17.9917278881
 20
13.969937381
 30
0.0
 10
17.9915492775
 20
13.9775825495
 30
0.0
 10
17.9914845313
 20
13.9814065332
 30
0.0
 10
17.9914097879
 20
13.9835900899
 30
0.0
 10
17.9914599503
 20
13.9852320883
 30
0.0
 10
17.9911041056
 20
13.9868575513
 30
0.0
 10
17.9907712603
 20
13.9890305997
 30
0.0
 10
17.9901228548
 20
13.9928307823
 30
0.0
 10
17.9892305903
 20
13.9982607298
 30
0.0
 10
17.9881472218
 20
14.0047773757
 30
0.0
 10
17.987241213
 20
14.0102040639
 30
0.0
 10
17.9865304156
 20
14.0145543002
 30
0.0
 10
17.9860527442
 20
14.0172529087
 30
0.0
 10
17.9857473198
 20
14.019458268
 30
0.0
 10
17.985308167
 20
14.0209850433
 30
0.0
 10
17.984810142
 20
14.0224761621
 30
0.0
 10
17.9838443841
 20
14.0254767431
 30
0.0
 10
17.9823829077
 20
14.0299698887
 30
0.0
 10
17.9804421656
 20
14.0359652669
 30
0.0
 10
17.9784972423
 20
14.0419590571
 30
0.0
 10
17.9770451736
 20
14.0464557757
 30
0.0
 10
17.9760673948
 20
14.0494517912
 30
0.0
 10
17.9755957634
 20
14.0509529341
 30
0.0
 10
17.9750570468
 20
14.0524418955
 30
0.0
 10
17.9740195596
 20
14.0543692183
 30
0.0
 10
17.9728319937
 20
14.056798217
 30
0.0
 10
17.9708708089
 20
14.0606735242
 30
0.0
 10
17.9684402506
 20
14.0655214573
 30
0.0
 10
17.9645396111
 20
14.0732760174
 30
0.0
 10
17.9616167745
 20
14.0790924173
 30
0.0
 10
17.9596676294
 20
14.0829699107
 30
0.0
  0
SPLINE
  5
33D
100
AcDbEntity
  8
02__ASM_ALL_AXES
100
AcDbSpline
 62
7
  6
BYLAYER
 70
0
 71
3
 72
108
 73
104
 74
0
 42
0.0000001
 43
0.0000001
 44
0.0000000001
 40
0.0
 40
0.0
 40
0.0
 40
0.0
 40
0.03125
 40
0.0625
 40
0.078125
 40
0.09375
 40
0.109375
 40
0.1171875
 40
0.125
 40
0.1328125
 40
0.13671875
 40
0.140625
 40
0.142578125
 40
0.14453125
 40
0.146484375
 40
0.1484375
 40
0.15625
 40
0.1640625
 40
0.171875
 40
0.1875
 40
0.203125
 40
0.21875
 40
0.234375
 40
0.25
 40
0.2578125
 40
0.265625
 40
0.2734375
 40
0.27734375
 40
0.28125
 40
0.283203125
 40
0.28515625
 40
0.2890625
 40
0.29296875
 40
0.296875
 40
0.3046875
 40
0.3125
 40
0.328125
 40
0.34375
 40
0.375
 40
0.390625
 40
0.40625
 40
0.4140625
 40
0.421875
 40
0.42578125
 40
0.427734375
 40
0.4287109375
 40
0.4296875
 40
0.431640625
 40
0.43359375
 40
0.4375
 40
0.4453125
 40
0.453125
 40
0.46875
 40
0.484375
 40
0.5
 40
0.515625
 40
0.53125
 40
0.546875
 40
0.5546875
 40
0.5625
 40
0.56640625
 40
0.568359375
 40
0.5703125
 40
0.5712890625
 40
0.572265625
 40
0.57421875
 40
0.578125
 40
0.5859375
 40
0.59375
 40
0.609375
 40
0.625
 40
0.65625
 40
0.671875
 40
0.6875
 40
0.6953125
 40
0.703125
 40
0.70703125
 40
0.7109375
 40
0.71484375
 40
0.716796875
 40
0.71875
 40
0.7265625
 40
0.734375
 40
0.7421875
 40
0.75
 40
0.765625
 40
0.78125
 40
0.8125
 40
0.828125
 40
0.84375
 40
0.8515625
 40
0.85546875
 40
0.857421875
 40
0.859375
 40
0.86328125
 40
0.8671875
 40
0.875
 40
0.8828125
 40
0.890625
 40
0.90625
 40
0.9375
 40
0.96875
 40
1.0
 40
1.0
 40
1.0
 40
1.0
 10
17.9596676337
 20
14.0829699035
 30
0.0
 10
17.956399367
 20
14.0868798674
 30
0.0
 10
17.9498628393
 20
14.0946997993
 30
0.0
 10
17.9416921522
 20
14.1044746927
 30
0.0
 10
17.9351556601
 20
14.1122946527
 30
0.0
 10
17.9302531345
 20
14.1181594997
 30
0.0
 10
17.9261681945
 20
14.1230472633
 30
0.0
 10
17.9228991255
 20
14.1269565971
 30
0.0
 10
17.9204503759
 20
14.129890994
 30
0.0
 10
17.9184000429
 20
14.1323287019
 30
0.0
 10
17.9167815504
 20
14.1342959646
 30
0.0
 10
17.915720412
 20
14.1354865745
 30
0.0
 10
17.9149850513
 20
14.1365282185
 30
0.0
 10
17.9141226291
 20
14.1370653408
 30
0.0
 10
17.9132918322
 20
14.1376272944
 30
0.0
 10
17.9116139704
 20
14.1387384283
 30
0.0
 10
17.9091040093
 20
14.1404104931
 30
0.0
 10
17.9057534955
 20
14.1426368516
 30
0.0
 10
17.9012875058
 20
14.145606399
 30
0.0
 10
17.895704551
 20
14.1493179658
 30
0.0
 10
17.8890052072
 20
14.1537720053
 30
0.0
 10
17.8823058036
 20
14.1582259956
 30
0.0
 10
17.8756064376
 20
14.1626800233
 30
0.0
 10
17.8700235568
 20
14.1663916295
 30
0.0
 10
17.8655574155
 20
14.1693610963
 30
0.0
 10
17.8622073649
 20
14.1715877008
 30
0.0
 10
17.8594170699
 20
14.1734447808
 30
0.0
 10
17.8571816632
 20
14.1749269097
 30
0.0
 10
17.8557917537
 20
14.1758612899
 30
0.0
 10
17.8546632915
 20
14.1765903587
 30
0.0
 10
17.8535951923
 20
14.1773867294
 30
0.0
 10
17.8518280136
 20
14.1779004726
 30
0.0
 10
17.8498084065
 20
14.1786295827
 30
0.0
 10
17.8470803172
 20
14.1795623943
 30
0.0
 10
17.8436822853
 20
14.180741877
 30
0.0
 10
17.8382386839
 20
14.1826215232
 30
0.0
 10
17.8314364911
 20
14.1849736544
 30
0.0
 10
17.8205517059
 20
14.1887356468
 30
0.0
 10
17.8096671925
 20
14.1924979091
 30
0.0
 10
17.7987828213
 20
14.1962604247
 30
0.0
 10
17.7919795072
 20
14.1986111388
 30
0.0
 10
17.7865382174
 20
14.2004937062
 30
0.0
 10
17.7831342986
 20
14.2016657497
 30
0.0
 10
17.7807577944
 20
14.202495322
 30
0.0
 10
17.7795610009
 20
14.2028975926
 30
0.0
 10
17.77889087
 20
14.2031476107
 30
0.0
 10
17.7780826755
 20
14.2031953268
 30
0.0
 10
17.7771196991
 20
14.2033242308
 30
0.0
 10
17.7755525576
 20
14.2034918241
 30
0.0
 10
17.772822349
 20
14.2038031193
 30
0.0
 10
17.7689156391
 20
14.2042384316
 30
0.0
 10
17.7626684869
 20
14.2049401823
 30
0.0
 10
17.7548583167
 20
14.2058155679
 30
0.0
 10
17.7454866407
 20
14.2068668075
 30
0.0
 10
17.7361148196
 20
14.2079178244
 30
0.0
 10
17.7267430506
 20
14.2089689549
 30
0.0
 10
17.7173712182
 20
14.2100198536
 30
0.0
 10
17.7095615258
 20
14.2108962804
 30
0.0
 10
17.7033134006
 20
14.2115959109
 30
0.0
 10
17.6994091666
 20
14.2120366185
 30
0.0
 10
17.6966745112
 20
14.2123382235
 30
0.0
 10
17.6951144975
 20
14.2125213495
 30
0.0
 10
17.6941332754
 20
14.212610493
 30
0.0
 10
17.6933625486
 20
14.2127398575
 30
0.0
 10
17.6925397889
 20
14.2126572713
 30
0.0
 10
17.6911090289
 20
14.2125496883
 30
0.0
 10
17.6882410706
 20
14.2123082975
 30
0.0
 10
17.6841473465
 20
14.2119771363
 30
0.0
 10
17.6775955107
 20
14.2114396323
 30
0.0
 10
17.6694063585
 20
14.2107703663
 30
0.0
 10
17.6563033569
 20
14.2096981034
 30
0.0
 10
17.643200448
 20
14.2086260996
 30
0.0
 10
17.6300975295
 20
14.2075543965
 30
0.0
 10
17.6219081521
 20
14.2068836143
 30
0.0
 10
17.6153567806
 20
14.206349236
 30
0.0
 10
17.6112618741
 20
14.2060101148
 30
0.0
 10
17.6079866347
 20
14.2057505794
 30
0.0
 10
17.6055283273
 20
14.2055237239
 30
0.0
 10
17.6034857114
 20
14.2054371236
 30
0.0
 10
17.6018270703
 20
14.2049468431
 30
0.0
 10
17.5993454226
 20
14.2043197042
 30
0.0
 10
17.5956202991
 20
14.2033335162
 30
0.0
 10
17.5906549834
 20
14.2020445936
 30
0.0
 10
17.5856892624
 20
14.2007487157
 30
0.0
 10
17.5790684418
 20
14.1990233135
 30
0.0
 10
17.570792374
 20
14.1968656869
 30
0.0
 10
17.5575506533
 20
14.1934142069
 30
0.0
 10
17.5443091404
 20
14.1899611875
 30
0.0
 10
17.5310670131
 20
14.1865122444
 30
0.0
 10
17.5227920463
 20
14.1843477472
 30
0.0
 10
17.5169968423
 20
14.1828504137
 30
0.0
 10
17.5141029734
 20
14.1820773634
 30
0.0
 10
17.512443324
 20
14.1816748759
 30
0.0
 10
17.5108440154
 20
14.1808782612
 30
0.0
 10
17.5088242189
 20
14.1800174425
 30
0.0
 10
17.5056040919
 20
14.1785647091
 30
0.0
 10
17.5015749713
 20
14.1767746695
 30
0.0
 10
17.4967417221
 20
14.1746155469
 30
0.0
 10
17.4902967985
 20
14.1717405798
 30
0.0
 10
17.4790184577
 20
14.1667075874
 30
0.0
 10
17.4629063982
 20
14.15951854
 30
0.0
 10
17.4435719888
 20
14.1508912774
 30
0.0
 10
17.4306823708
 20
14.1451398463
 30
0.0
 10
17.4242375632
 20
14.142264121
 30
0.0
  0
SPLINE
  5
33E
100
AcDbEntity
  8
02__ASM_ALL_AXES
100
AcDbSpline
 62
7
  6
BYLAYER
 70
0
 71
3
 72
31
 73
27
 74
0
 42
0.0000001
 43
0.0000001
 44
0.0000000001
 40
0.0
 40
0.0
 40
0.0
 40
0.0
 40
0.125
 40
0.1875
 40
0.25
 40
0.28125
 40
0.3125
 40
0.328125
 40
0.34375
 40
0.375
 40
0.4375
 40
0.46875
 40
0.484375
 40
0.5
 40
0.515625
 40
0.53125
 40
0.5625
 40
0.625
 40
0.65625
 40
0.671875
 40
0.6875
 40
0.71875
 40
0.75
 40
0.8125
 40
0.875
 40
1.0
 40
1.0
 40
1.0
 40
1.0
 10
17.4242375595
 20
14.142264119
 30
0.0
 10
17.4206637898
 20
14.1402400697
 30
0.0
 10
17.4152935837
 20
14.1372171848
 30
0.0
 10
17.4081715152
 20
14.1331339154
 30
0.0
 10
17.4038012517
 20
14.1304548759
 30
0.0
 10
17.4002937697
 20
14.128345338
 30
0.0
 10
17.3980892567
 20
14.1270061406
 30
0.0
 10
17.3963580722
 20
14.1259761261
 30
0.0
 10
17.3945070537
 20
14.1247973267
 30
0.0
 10
17.3912108927
 20
14.1226649592
 30
0.0
 10
17.3874742973
 20
14.1202596148
 30
0.0
 10
17.3841817348
 20
14.1181413335
 30
0.0
 10
17.3823245474
 20
14.1169383864
 30
0.0
 10
17.3808654093
 20
14.116017565
 30
0.0
 10
17.3796591233
 20
14.115167438
 30
0.0
 10
17.3779624249
 20
14.1140091159
 30
0.0
 10
17.375035549
 20
14.1119952259
 30
0.0
 10
17.3716651248
 20
14.1096777623
 30
0.0
 10
17.3687403931
 20
14.1076784797
 30
0.0
 10
17.3670400189
 20
14.1064951162
 30
0.0
 10
17.3652327199
 20
14.1051584093
 30
0.0
 10
17.3630092939
 20
14.103540675
 30
0.0
 10
17.3594371961
 20
14.100918831
 30
0.0
 10
17.354938905
 20
14.0976799466
 30
0.0
 10
17.3479831522
 20
14.0923187783
 30
0.0
 10
17.3428178708
 20
14.0882634092
 30
0.0
 10
17.3393628981
 20
14.0855674949
 30
0.0
  0
LINE
  5
33F
100
AcDbEntity
  8
02__ASM_ALL_AXES
100
AcDbLine
 62
7
  6
BYLAYER
 10
17.3393628985
 20
14.0855674953
 11
17.3366301651
 21
14.0833511047
  0
SPLINE
  5
340
100
AcDbEntity
  8
02__ASM_ALL_AXES
100
AcDbSpline
 62
7
  6
BYLAYER
 70
0
 71
3
 72
52
 73
48
 74
0
 42
0.0000001
 43
0.0000001
 44
0.0000000001
 40
0.0
 40
0.0
 40
0.0
 40
0.0
 40
0.0625
 40
0.09375
 40
0.125
 40
0.140625
 40
0.15625
 40
0.1640625
 40
0.171875
 40
0.1875
 40
0.21875
 40
0.25
 40
0.28125
 40
0.3125
 40
0.328125
 40
0.3359375
 40
0.34375
 40
0.359375
 40
0.375
 40
0.4375
 40
0.46875
 40
0.484375
 40
0.4921875
 40
0.5
 40
0.5078125
 40
0.515625
 40
0.53125
 40
0.5625
 40
0.625
 40
0.640625
 40
0.65625
 40
0.6640625
 40
0.671875
 40
0.6796875
 40
0.6875
 40
0.71875
 40
0.75
 40
0.78125
 40
0.8125
 40
0.828125
 40
0.8359375
 40
0.84375
 40
0.859375
 40
0.875
 40
0.90625
 40
0.9375
 40
1.0
 40
1.0
 40
1.0
 40
1.0
 10
17.3366301652
 20
14.0833511048
 30
0.0
 10
17.332431494
 20
14.0796249937
 30
0.0
 10
17.3261338968
 20
14.0740352876
 30
0.0
 10
17.317735462
 20
14.066584504
 30
0.0
 10
17.3124898538
 20
14.0619232686
 30
0.0
 10
17.3082855845
 20
14.0582045303
 30
0.0
 10
17.3056756661
 20
14.0558569417
 30
0.0
 10
17.3035470773
 20
14.0540324136
 30
0.0
 10
17.301566905
 20
14.052012416
 30
0.0
 10
17.2981706236
 20
14.0483865929
 30
0.0
 10
17.2932822367
 20
14.0432544069
 30
0.0
 10
17.2874338824
 20
14.0370750948
 30
0.0
 10
17.281573178
 20
14.0309024405
 30
0.0
 10
17.2767156666
 20
14.0257536098
 30
0.0
 10
17.2732653531
 20
14.0221569149
 30
0.0
 10
17.2713716321
 20
14.0200903121
 30
0.0
 10
17.2697711701
 20
14.0179810535
 30
0.0
 10
17.2676703047
 20
14.015359091
 30
0.0
 10
17.2627112149
 20
14.0090540848
 30
0.0
 10
17.256893447
 20
14.0017053336
 30
0.0
 10
17.2510995548
 20
13.9943460736
 30
0.0
 10
17.248186093
 20
13.9906779531
 30
0.0
 10
17.2465461594
 20
13.988563655
 30
0.0
 10
17.2452462229
 20
13.9870293306
 30
0.0
 10
17.244213781
 20
13.9852985242
 30
0.0
 10
17.2427438758
 20
13.9830593111
 30
0.0
 10
17.2402151283
 20
13.9791088231
 30
0.0
 10
17.2351245045
 20
13.9712304521
 30
0.0
 10
17.2300583067
 20
13.9633439115
 30
0.0
 10
17.2256871735
 20
13.9565853793
 30
0.0
 10
17.2239020331
 20
13.9537709482
 30
0.0
 10
17.2223899923
 20
13.9515153699
 30
0.0
 10
17.2214860482
 20
13.9498348119
 30
0.0
 10
17.2206465831
 20
13.948157376
 30
0.0
 10
17.2189345089
 20
13.9448008837
 30
0.0
 10
17.2163799661
 20
13.9397670372
 30
0.0
 10
17.2129678317
 20
13.9330537264
 30
0.0
 10
17.2095510605
 20
13.9263445743
 30
0.0
 10
17.2067242715
 20
13.9207410147
 30
0.0
 10
17.204704455
 20
13.9168431627
 30
0.0
 10
17.2036145138
 20
13.9145773591
 30
0.0
 10
17.2027665704
 20
13.9121666972
 30
0.0
 10
17.2016237814
 20
13.9092029692
 30
0.0
 10
17.1998416258
 20
13.9044332854
 30
0.0
 10
17.197598069
 20
13.8984806757
 30
0.0
 10
17.1940172832
 20
13.8889511696
 30
0.0
 10
17.1913296903
 20
13.8818052394
 30
0.0
 10
17.1895384069
 20
13.8770410194
 30
0.0
  0
SPLINE
  5
341
100
AcDbEntity
  8
0
100
AcDbSpline
 62
7
  6
BYLAYER
 70
0
 71
3
 72
21
 73
17
 74
0
 42
0.0000001
 43
0.0000001
 44
0.0000000001
 40
0.0
 40
0.0
 40
0.0
 40
0.0
 40
0.1324833525
 40
0.2011719909
 40
0.270717175
 40
0.4097744979
 40
0.4782488693
 40
0.5452181001
 40
0.6102104048
 40
0.6728607986
 40
0.7329441083
 40
0.790405565
 40
0.8453871346
 40
0.898243336
 40
0.9495366349
 40
1.0
 40
1.0
 40
1.0
 40
1.0
 10
17.7139572212
 20
14.2966804378
 30
0.0
 10
17.6680616482
 20
14.2966804378
 30
0.0
 10
17.5981446043
 20
14.2884313345
 30
0.0
 10
17.5076329027
 20
14.2635139757
 30
0.0
 10
17.4178655502
 20
14.2289497686
 30
0.0
 10
17.3336043513
 20
14.1814629087
 30
0.0
 10
17.2585263214
 20
14.1228950342
 30
0.0
 10
17.2083725229
 20
14.0746773377
 30
0.0
 10
17.1650439312
 20
14.0228430139
 30
0.0
 10
17.129323973
 20
13.9683079012
 30
0.0
 10
17.1018743737
 20
13.9120426824
 30
0.0
 10
17.0832186784
 20
13.8550438211
 30
0.0
 10
17.0737402037
 20
13.7983305565
 30
0.0
 10
17.0736793169
 20
13.7429310427
 30
0.0
 10
17.0830930433
 20
13.6899171217
 30
0.0
 10
17.0956554273
 20
13.6567182734
 30
0.0
 10
17.1033579912
 20
13.6410248606
 30
0.0
  0
SPLINE
  5
342
100
AcDbEntity
  8
0
100
AcDbSpline
 62
7
  6
BYLAYER
 70
0
 71
3
 72
15
 73
11
 74
0
 42
0.0000001
 43
0.0000001
 44
0.0000000001
 40
0.0
 40
0.0
 40
0.0
 40
0.0
 40
0.1413511977
 40
0.2777080036
 40
0.408745619
 40
0.5346201601
 40
0.6557504743
 40
0.7729113321
 40
0.8872082124
 40
1.0
 40
1.0
 40
1.0
 40
1.0
 10
17.7139572212
 20
14.2966804378
 30
0.0
 10
17.7336257354
 20
14.2966804378
 30
0.0
 10
17.7723037918
 20
14.2947127675
 30
0.0
 10
17.8285600796
 20
14.2855634511
 30
0.0
 10
17.8812767942
 20
14.2703640959
 30
0.0
 10
17.9296628822
 20
14.2493243805
 30
0.0
 10
17.9730004287
 20
14.2227212203
 30
0.0
 10
18.0106226834
 20
14.1909175684
 30
0.0
 10
18.0419221666
 20
14.1543853028
 30
0.0
 10
18.0582845652
 20
14.1271462181
 30
0.0
 10
18.0651996761
 20
14.1130571833
 30
0.0
  0
SPLINE
  5
343
100
AcDbEntity
  8
02___PRT_ALL_AXES
100
AcDbSpline
 62
7
  6
BYLAYER
 70
0
 71
3
 72
15
 73
11
 74
0
 42
0.0000001
 43
0.0000001
 44
0.0000000001
 40
0.0
 40
0.0
 40
0.0
 40
0.0
 40
0.2698240389
 40
0.4092446546
 40
0.5448668238
 40
0.6726306825
 40
0.7902103718
 40
0.8979727675
 40
0.9494028895
 40
1.0
 40
1.0
 40
1.0
 40
1.0
 10
17.7770774532
 20
13.597693179
 30
0.0
 10
17.7863993072
 20
13.597693179
 30
0.0
 10
17.8006755662
 20
13.6010687037
 30
0.0
 10
17.8171227777
 20
13.610349442
 30
0.0
 10
17.8277609229
 20
13.6194867406
 30
0.0
 10
17.8357467133
 20
13.6300928904
 30
0.0
 10
17.8405199527
 20
13.641478552
 30
0.0
 10
17.8414383185
 20
13.6511906754
 30
0.0
 10
17.8401660684
 20
13.6583618308
 30
0.0
 10
17.8389098239
 20
13.6616818072
 30
0.0
 10
17.8381403094
 20
13.6632513405
 30
0.0
  0
SPLINE
  5
344
100
AcDbEntity
  8
02___PRT_ALL_AXES
100
AcDbSpline
 62
7
  6
BYLAYER
 70
0
 71
3
 72
10
 73
6
 74
0
 42
0.0000001
 43
0.0000001
 44
0.0000000001
 40
0.0
 40
0.0
 40
0.0
 40
0.0
 40
0.5161344746
 40
0.7604943016
 40
1.0
 40
1.0
 40
1.0
 40
1.0
 10
17.2811405811
 20
13.6396571206
 30
0.0
 10
17.2823668274
 20
13.643625255
 30
0.0
 10
17.2832853644
 20
13.6498501745
 30
0.0
 10
17.282089946
 20
13.657849941
 30
0.0
 10
17.2807362839
 20
13.6615371129
 30
0.0
 10
17.2798860378
 20
13.6632667044
 30
0.0
  0
SPLINE
  5
345
100
AcDbEntity
  8
02___PRT_ALL_AXES
100
AcDbSpline
 62
7
  6
BYLAYER
 70
0
 71
3
 72
15
 73
11
 74
0
 42
0.0000001
 43
0.0000001
 44
0.0000000001
 40
0.0
 40
0.0
 40
0.0
 40
0.0
 40
0.2698240389
 40
0.4092446546
 40
0.5448668238
 40
0.6726306825
 40
0.7902103718
 40
0.8979727675
 40
0.9494028895
 40
1.0
 40
1.0
 40
1.0
 40
1.0
 10
17.3655445366
 20
14.0724609816
 30
0.0
 10
17.3748663907
 20
14.0724609816
 30
0.0
 10
17.3891426497
 20
14.0758365063
 30
0.0
 10
17.4055898612
 20
14.0851172446
 30
0.0
 10
17.4162280064
 20
14.0942545432
 30
0.0
 10
17.4242137967
 20
14.1048606929
 30
0.0
 10
17.4289870361
 20
14.1162463546
 30
0.0
 10
17.4299054019
 20
14.125958478
 30
0.0
 10
17.4286331519
 20
14.1331296334
 30
0.0
 10
17.4273769074
 20
14.1364496097
 30
0.0
 10
17.4266073928
 20
14.1380191431
 30
0.0
  0
SPLINE
  5
346
100
AcDbEntity
  8
02___PRT_ALL_AXES
100
AcDbSpline
 62
7
  6
BYLAYER
 70
0
 71
3
 72
10
 73
6
 74
0
 42
0.0000001
 43
0.0000001
 44
0.0000000001
 40
0.0
 40
0.0
 40
0.0
 40
0.0
 40
0.5161344746
 40
0.7604943016
 40
1.0
 40
1.0
 40
1.0
 40
1.0
 10
17.9861021927
 20
14.1144249232
 30
0.0
 10
17.987328439
 20
14.1183930576
 30
0.0
 10
17.988246976
 20
14.1246179771
 30
0.0
 10
17.9870515576
 20
14.1326177436
 30
0.0
 10
17.9856978955
 20
14.1363049155
 30
0.0
 10
17.9848476494
 20
14.138034507
 30
0.0
  0
SPLINE
  5
347
100
AcDbEntity
  8
0
100
AcDbSpline
 62
7
  6
BYLAYER
 70
0
 71
3
 72
11
 73
7
 74
0
 42
0.0000001
 43
0.0000001
 44
0.0000000001
 40
0.0
 40
0.0
 40
0.0
 40
0.0
 40
0.2643559258
 40
0.5171099892
 40
0.760912027
 40
1.0
 40
1.0
 40
1.0
 40
1.0
 10
17.7816490466
 20
13.8770410219
 30
0.0
 10
17.7841647481
 20
13.8851818347
 30
0.0
 10
17.7878481627
 20
13.9015306721
 30
0.0
 10
17.7889629134
 20
13.9261676082
 30
0.0
 10
17.7854606014
 20
13.9497710699
 30
0.0
 10
17.7800515116
 20
13.9645047036
 30
0.0
 10
17.7766587984
 20
13.9714239099
 30
0.0
  0
SPLINE
  5
348
100
AcDbEntity
  8
0
100
AcDbSpline
 62
7
  6
BYLAYER
 70
0
 71
3
 72
28
 73
24
 74
0
 42
0.0000001
 43
0.0000001
 44
0.0000000001
 40
0.0
 40
0.0
 40
0.0
 40
0.0
 40
0.0649912613
 40
0.1342279858
 40
0.2067825956
 40
0.2816471911
 40
0.3577460416
 40
0.4339750915
 40
0.5092259219
 40
0.5824152306
 40
0.6525132176
 40
0.718574724
 40
0.7797745619
 40
0.8083438548
 40
0.8354673665
 40
0.8610968002
 40
0.8852060397
 40
0.9077891972
 40
0.9288712216
 40
0.9485087649
 40
0.9668016064
 40
0.983897395
 40
1.0
 40
1.0
 40
1.0
 40
1.0
 10
17.1895830524
 20
13.0689684987
 30
0.0
 10
17.1799756108
 20
13.0378788063
 30
0.0
 10
17.1626375295
 20
12.9728786956
 30
0.0
 10
17.1425060235
 20
12.8712604414
 30
0.0
 10
17.1276709594
 20
12.7637438623
 30
0.0
 10
17.1183898897
 20
12.6521651163
 30
0.0
 10
17.1148257628
 20
12.5384189511
 30
0.0
 10
17.1170398896
 20
12.4244455293
 30
0.0
 10
17.1249940759
 20
12.3121867447
 30
0.0
 10
17.138549498
 20
12.2035549755
 30
0.0
 10
17.157469982
 20
12.1003932223
 30
0.0
 10
17.1814281264
 20
12.0044542051
 30
0.0
 10
17.2057740101
 20
11.9302305155
 30
0.0
 10
17.2276497536
 20
11.8759260519
 30
0.0
 10
17.2446566483
 20
11.8389116259
 30
0.0
 10
17.2625722913
 20
11.8048293991
 30
0.0
 10
17.2813175525
 20
11.7738198051
 30
0.0
 10
17.3008216636
 20
11.7460150735
 30
0.0
 10
17.3210027883
 20
11.7215281962
 30
0.0
 10
17.3417878545
 20
11.7004652889
 30
0.0
 10
17.3631008695
 20
11.6829160233
 30
0.0
 10
17.3848602553
 20
11.6689685729
 30
0.0
 10
17.4000021776
 20
11.6619477417
 30
0.0
 10
17.407556844
 20
11.659131916
 30
0.0
  0
SPLINE
  5
349
100
AcDbEntity
  8
0
100
AcDbSpline
 62
7
  6
BYLAYER
 70
0
 71
3
 72
20
 73
16
 74
0
 42
0.0000001
 43
0.0000001
 44
0.0000000001
 40
0.0
 40
0.0
 40
0.0
 40
0.0
 40
0.0507346387
 40
0.1026049288
 40
0.1565697783
 40
0.2132859529
 40
0.3355412564
 40
0.4011063845
 40
0.4688914007
 40
0.6080283959
 40
0.6779797119
 40
0.7469937685
 40
0.814298072
 40
0.8792296436
 40
1.0
 40
1.0
 40
1.0
 40
1.0
 10
17.3918988689
 20
13.782658134
 30
0.0
 10
17.3955136459
 20
13.7752860435
 30
0.0
 10
17.4045219437
 20
13.7611477191
 30
0.0
 10
17.4225513928
 20
13.7430914863
 30
0.0
 10
17.4446527901
 20
13.7285111693
 30
0.0
 10
17.4795560001
 20
13.7138171367
 30
0.0
 10
17.5194239949
 20
13.7079889774
 30
0.0
 10
17.5607959716
 20
13.7101841449
 30
0.0
 10
17.6042930045
 20
13.7180365791
 30
0.0
 10
17.6467125625
 20
13.7338885187
 30
0.0
 10
17.6856703158
 20
13.7565690926
 30
0.0
 10
17.7124486783
 20
13.7766321403
 30
0.0
 10
17.7360405024
 20
13.7992265216
 30
0.0
 10
17.7618045549
 20
13.831113709
 30
0.0
 10
17.7758784871
 20
13.8583674843
 30
0.0
 10
17.7816490466
 20
13.8770410219
 30
0.0
  0
SPLINE
  5
34A
100
AcDbEntity
  8
0
100
AcDbSpline
 62
7
  6
BYLAYER
 70
0
 71
3
 72
15
 73
11
 74
0
 42
0.0000001
 43
0.0000001
 44
0.0000000001
 40
0.0
 40
0.0
 40
0.0
 40
0.0
 40
0.1727354959
 40
0.3318978105
 40
0.4763624808
 40
0.6058446916
 40
0.7207723983
 40
0.8225759976
 40
0.9141485651
 40
1.0
 40
1.0
 40
1.0
 40
1.0
 10
18.236979323
 20
12.7026626246
 30
0.0
 10
18.2394782171
 20
12.7107490489
 30
0.0
 10
18.2447674476
 20
12.7261433017
 30
0.0
 10
18.2539898183
 20
12.7476120725
 30
0.0
 10
18.264093427
 20
12.766313351
 30
0.0
 10
18.2749614507
 20
12.7820216267
 30
0.0
 10
18.2864850817
 20
12.7945625235
 30
0.0
 10
18.298589459
 20
12.803769884
 30
0.0
 10
18.3111808586
 20
12.8094631036
 30
0.0
 10
18.3199177624
 20
12.8107724152
 30
0.0
 10
18.3241243289
 20
12.810773869
 30
0.0
  0
SPLINE
  5
34B
100
AcDbEntity
  8
02___PRT_ALL_AXES
100
AcDbSpline
 62
7
  6
BYLAYER
 70
0
 71
3
 72
11
 73
7
 74
0
 42
0.0000001
 43
0.0000001
 44
0.0000000001
 40
0.0
 40
0.0
 40
0.0
 40
0.0
 40
0.3156806228
 40
0.5821591739
 40
0.8046012074
 40
1.0
 40
1.0
 40
1.0
 40
1.0
 10
18.209816036
 20
12.9513417049
 30
0.0
 10
18.2106612078
 20
12.9496194258
 30
0.0
 10
18.2124201789
 20
12.9465314833
 30
0.0
 10
18.21558465
 20
12.9427569237
 30
0.0
 10
18.2190430077
 20
12.9403274196
 30
0.0
 10
18.2216019566
 20
12.9397341085
 30
0.0
 10
18.2227894486
 20
12.9397353913
 30
0.0
  0
SPLINE
  5
34C
100
AcDbEntity
  8
02___PRT_ALL_AXES
100
AcDbSpline
 62
7
  6
BYLAYER
 70
0
 71
3
 72
25
 73
21
 74
0
 42
0.0000001
 43
0.0000001
 44
0.0000000001
 40
0.0
 40
0.0
 40
0.0
 40
0.0
 40
0.0801435105
 40
0.1060445584
 40
0.1343712276
 40
0.1979954058
 40
0.2698745281
 40
0.3481959508
 40
0.4307439282
 40
0.5150560429
 40
0.5985887239
 40
0.67882665
 40
0.7534447975
 40
0.8204517212
 40
0.8783749898
 40
0.9266090667
 40
0.9473234
 40
0.9661082258
 40
0.9834461605
 40
1.0
 40
1.0
 40
1.0
 40
1.0
 10
18.1211467749
 20
12.7253475635
 30
0.0
 10
18.1180722917
 20
12.7244387926
 30
0.0
 10
18.114754793
 20
12.7211416506
 30
0.0
 10
18.1118776543
 20
12.7166531491
 30
0.0
 10
18.1096805326
 20
12.7124634048
 30
0.0
 10
18.1073212276
 20
12.7063334595
 30
0.0
 10
18.1051358234
 20
12.6980486876
 30
0.0
 10
18.1035852682
 20
12.6888571036
 30
0.0
 10
18.1027239289
 20
12.6790774985
 30
0.0
 10
18.1025827308
 20
12.6690531654
 30
0.0
 10
18.1031669751
 20
12.6591372085
 30
0.0
 10
18.1044568566
 20
12.6496780968
 30
0.0
 10
18.1064027195
 20
12.6410066173
 30
0.0
 10
18.1089356994
 20
12.6334169295
 30
0.0
 10
18.1119692377
 20
12.6271666809
 30
0.0
 10
18.1149855444
 20
12.6230230977
 30
0.0
 10
18.1176115085
 20
12.6206749817
 30
0.0
 10
18.1195482539
 20
12.6194584368
 30
0.0
 10
18.1215393605
 20
12.6187199562
 30
0.0
 10
18.1229008088
 20
12.6185559486
 30
0.0
 10
18.1235630087
 20
12.6185580253
 30
0.0
  0
SPLINE
  5
34D
100
AcDbEntity
  8
02___PRT_ALL_AXES
100
AcDbSpline
 62
7
  6
BYLAYER
 70
0
 71
3
 72
18
 73
14
 74
0
 42
0.0000001
 43
0.0000001
 44
0.0000000001
 40
0.0
 40
0.0
 40
0.0
 40
0.0
 40
0.1393852211
 40
0.2927819298
 40
0.4502785
 40
0.60149873
 40
0.736802521
 40
0.7960744217
 40
0.8488586442
 40
0.894900179
 40
0.9345235345
 40
0.9688231352
 40
1.0
 40
1.0
 40
1.0
 40
1.0
 10
18.125449083
 20
12.2980996697
 30
0.0
 10
18.1241466502
 20
12.2938849956
 30
0.0
 10
18.1221558991
 20
12.2847980965
 30
0.0
 10
18.1207867605
 20
12.2705880323
 30
0.0
 10
18.1209499132
 20
12.255933716
 30
0.0
 10
18.1226339985
 20
12.24195576
 30
0.0
 10
18.1252879572
 20
12.2312914192
 30
0.0
 10
18.1281678264
 20
12.2239998773
 30
0.0
 10
18.1304935996
 20
12.2195562247
 30
0.0
 10
18.133044759
 20
12.2159725095
 30
0.0
 10
18.1357887619
 20
12.2133075887
 30
0.0
 10
18.1387111733
 20
12.2116279492
 30
0.0
 10
18.1407966224
 20
12.2112291386
 30
0.0
 10
18.1417833213
 20
12.2112278736
 30
0.0
  0
SPLINE
  5
34E
100
AcDbEntity
  8
02___PRT_ALL_AXES
100
AcDbSpline
 62
7
  6
BYLAYER
 70
0
 71
3
 72
16
 73
12
 74
0
 42
0.0000001
 43
0.0000001
 44
0.0000000001
 40
0.0
 40
0.0
 40
0.0
 40
0.0
 40
0.1733802529
 40
0.3391236311
 40
0.4924000775
 40
0.6296955483
 40
0.7484351984
 40
0.8476423075
 40
0.9292058445
 40
0.9653732318
 40
1.0
 40
1.0
 40
1.0
 40
1.0
 10
18.246138404
 20
12.0038019283
 30
0.0
 10
18.2462810935
 20
12.0006186332
 30
0.0
 10
18.2467802921
 20
11.9943995344
 30
0.0
 10
18.2481791257
 20
11.9854494944
 30
0.0
 10
18.2501774563
 20
11.977292139
 30
0.0
 10
18.2527053732
 20
11.9701904598
 30
0.0
 10
18.2556871049
 20
11.9643532657
 30
0.0
 10
18.2590398014
 20
11.959942715
 30
0.0
 10
18.2622734582
 20
11.9574680232
 30
0.0
 10
18.2649268461
 20
11.9565117153
 30
0.0
 10
18.2662326864
 20
11.9563558893
 30
0.0
 10
18.2668690786
 20
11.9563565697
 30
0.0
  0
SPLINE
  5
34F
100
AcDbEntity
  8
02___PRT_ALL_AXES
100
AcDbSpline
 62
7
  6
BYLAYER
 70
0
 71
3
 72
11
 73
7
 74
0
 42
0.0000001
 43
0.0000001
 44
0.0000000001
 40
0.0
 40
0.0
 40
0.0
 40
0.0
 40
0.3156806228
 40
0.5821591739
 40
0.8046012074
 40
1.0
 40
1.0
 40
1.0
 40
1.0
 10
18.4125165706
 20
12.0148499649
 30
0.0
 10
18.4133617424
 20
12.0131276858
 30
0.0
 10
18.4151207135
 20
12.0100397433
 30
0.0
 10
18.4182851846
 20
12.0062651837
 30
0.0
 10
18.4217435423
 20
12.0038356796
 30
0.0
 10
18.4243024912
 20
12.0032423686
 30
0.0
 10
18.4254899832
 20
12.0032436513
 30
0.0
  0
SPLINE
  5
350
100
AcDbEntity
  8
02___PRT_ALL_AXES
100
AcDbSpline
 62
7
  6
BYLAYER
 70
0
 71
3
 72
25
 73
21
 74
0
 42
0.0000001
 43
0.0000001
 44
0.0000000001
 40
0.0
 40
0.0
 40
0.0
 40
0.0
 40
0.0801435105
 40
0.1060445584
 40
0.1343712276
 40
0.1979954058
 40
0.2698745281
 40
0.3481959508
 40
0.4307439282
 40
0.5150560429
 40
0.5985887239
 40
0.67882665
 40
0.7534447975
 40
0.8204517212
 40
0.8783749898
 40
0.9266090667
 40
0.9473234
 40
0.9661082258
 40
0.9834461605
 40
1.0
 40
1.0
 40
1.0
 40
1.0
 10
18.5223503913
 20
12.4312120316
 30
0.0
 10
18.5192759081
 20
12.4303032607
 30
0.0
 10
18.5159584094
 20
12.4270061187
 30
0.0
 10
18.5130812707
 20
12.4225176172
 30
0.0
 10
18.510884149
 20
12.4183278729
 30
0.0
 10
18.508524844
 20
12.4121979276
 30
0.0
 10
18.5063394398
 20
12.4039131557
 30
0.0
 10
18.5047888846
 20
12.3947215717
 30
0.0
 10
18.5039275453
 20
12.3849419666
 30
0.0
 10
18.5037863472
 20
12.3749176335
 30
0.0
 10
18.5043705915
 20
12.3650016766
 30
0.0
 10
18.505660473
 20
12.3555425649
 30
0.0
 10
18.5076063359
 20
12.3468710854
 30
0.0
 10
18.5101393158
 20
12.3392813976
 30
0.0
 10
18.5131728541
 20
12.333031149
 30
0.0
 10
18.5161891608
 20
12.3288875658
 30
0.0
 10
18.5188151249
 20
12.3265394498
 30
0.0
 10
18.5207518703
 20
12.3253229049
 30
0.0
 10
18.5227429769
 20
12.3245844243
 30
0.0
 10
18.5241044252
 20
12.3244204167
 30
0.0
 10
18.5247666251
 20
12.3244224934
 30
0.0
  0
SPLINE
  5
351
100
AcDbEntity
  8
02___PRT_ALL_AXES
100
AcDbSpline
 62
7
  6
BYLAYER
 70
0
 71
3
 72
18
 73
14
 74
0
 42
0.0000001
 43
0.0000001
 44
0.0000000001
 40
0.0
 40
0.0
 40
0.0
 40
0.0
 40
0.1393852211
 40
0.2927819298
 40
0.4502785
 40
0.60149873
 40
0.736802521
 40
0.7960744217
 40
0.8488586442
 40
0.894900179
 40
0.9345235345
 40
0.9688231352
 40
1.0
 40
1.0
 40
1.0
 40
1.0
 10
18.490136144
 20
12.8186209513
 30
0.0
 10
18.4888337111
 20
12.8144062772
 30
0.0
 10
18.4868429601
 20
12.8053193781
 30
0.0
 10
18.4854738215
 20
12.7911093139
 30
0.0
 10
18.4856369742
 20
12.7764549976
 30
0.0
 10
18.4873210595
 20
12.7624770416
 30
0.0
 10
18.4899750182
 20
12.7518127008
 30
0.0
 10
18.4928548873
 20
12.7445211589
 30
0.0
 10
18.4951806606
 20
12.7400775063
 30
0.0
 10
18.49773182
 20
12.7364937911
 30
0.0
 10
18.5004758229
 20
12.7338288703
 30
0.0
 10
18.5033982342
 20
12.7321492308
 30
0.0
 10
18.5054836833
 20
12.7317504202
 30
0.0
 10
18.5064703822
 20
12.7317491552
 30
0.0
  0
SPLINE
  5
352
100
AcDbEntity
  8
02___PRT_ALL_AXES
100
AcDbSpline
 62
7
  6
BYLAYER
 70
0
 71
3
 72
16
 73
12
 74
0
 42
0.0000001
 43
0.0000001
 44
0.0000000001
 40
0.0
 40
0.0
 40
0.0
 40
0.0
 40
0.1733802529
 40
0.3391236311
 40
0.4924000775
 40
0.6296955483
 40
0.7484351984
 40
0.8476423075
 40
0.9292058445
 40
0.9653732318
 40
1.0
 40
1.0
 40
1.0
 40
1.0
 10
18.3606801753
 20
13.0340657162
 30
0.0
 10
18.3608228648
 20
13.0308824211
 30
0.0
 10
18.3613220634
 20
13.0246633222
 30
0.0
 10
18.362720897
 20
13.0157132822
 30
0.0
 10
18.3647192275
 20
13.0075559268
 30
0.0
 10
18.3672471445
 20
13.0004542476
 30
0.0
 10
18.3702288761
 20
12.9946170536
 30
0.0
 10
18.3735815727
 20
12.9902065029
 30
0.0
 10
18.3768152295
 20
12.987731811
 30
0.0
 10
18.3794686173
 20
12.9867755032
 30
0.0
 10
18.3807744577
 20
12.9866196771
 30
0.0
 10
18.3814108498
 20
12.9866203575
 30
0.0
  0
SPLINE
  5
353
100
AcDbEntity
  8
02___PRT_ALL_AXES
100
AcDbSpline
 62
7
  6
BYLAYER
 70
0
 71
3
 72
18
 73
14
 74
0
 42
0.0000001
 43
0.0000001
 44
0.0000000001
 40
0.0
 40
0.0
 40
0.0
 40
0.0
 40
0.0507617329
 40
0.1026631579
 40
0.1566623213
 40
0.2134123122
 40
0.335740367
 40
0.4688971152
 40
0.6081052505
 40
0.6780929809
 40
0.7471436678
 40
0.8791658824
 40
1.0
 40
1.0
 40
1.0
 40
1.0
 10
17.8886716295
 20
14.0908153394
 30
0.0
 10
17.8895770589
 20
14.0889734926
 30
0.0
 10
17.8918306578
 20
14.0854407225
 30
0.0
 10
17.8963389489
 20
14.0809281568
 30
0.0
 10
17.9018656248
 20
14.0772863193
 30
0.0
 10
17.9105938279
 20
14.0736161469
 30
0.0
 10
17.9232970323
 20
14.0717627487
 30
0.0
 10
17.9392828103
 20
14.0737488516
 30
0.0
 10
17.9523740004
 20
14.0786398205
 30
0.0
 10
17.9621140959
 20
14.0843113029
 30
0.0
 10
17.9708993142
 20
14.0908985226
 30
0.0
 10
17.9798819545
 20
14.1005031776
 30
0.0
 10
17.9846597659
 20
14.1097572284
 30
0.0
 10
17.9861021927
 20
14.1144249232
 30
0.0
  0
SPLINE
  5
354
100
AcDbEntity
  8
02___PRT_ALL_AXES
100
AcDbSpline
 62
7
  6
BYLAYER
 70
0
 71
3
 72
11
 73
7
 74
0
 42
0.0000001
 43
0.0000001
 44
0.0000000001
 40
0.0
 40
0.0
 40
0.0
 40
0.0
 40
0.2268632804
 40
0.4650145788
 40
0.722100556
 40
1.0
 40
1.0
 40
1.0
 40
1.0
 10
17.3304173579
 20
14.0908307033
 30
0.0
 10
17.3318038755
 20
14.0880027053
 30
0.0
 10
17.3356834116
 20
14.0826640046
 30
0.0
 10
17.3439824725
 20
14.0767795602
 30
0.0
 10
17.3542263765
 20
14.0732010478
 30
0.0
 10
17.3616863842
 20
14.0724609816
 30
0.0
 10
17.3655445366
 20
14.0724609816
 30
0.0
  0
SPLINE
  5
355
100
AcDbEntity
  8
02___PRT_ALL_AXES
100
AcDbSpline
 62
7
  6
BYLAYER
 70
0
 71
3
 72
18
 73
14
 74
0
 42
0.0000001
 43
0.0000001
 44
0.0000000001
 40
0.0
 40
0.0
 40
0.0
 40
0.0
 40
0.0507617329
 40
0.1026631579
 40
0.1566623213
 40
0.2134123122
 40
0.335740367
 40
0.4688971152
 40
0.6081052505
 40
0.6780929809
 40
0.7471436678
 40
0.8791658824
 40
1.0
 40
1.0
 40
1.0
 40
1.0
 10
17.1837100179
 20
13.6160475368
 30
0.0
 10
17.1846154473
 20
13.61420569
 30
0.0
 10
17.1868690462
 20
13.6106729199
 30
0.0
 10
17.1913773373
 20
13.6061603542
 30
0.0
 10
17.1969040132
 20
13.6025185167
 30
0.0
 10
17.2056322163
 20
13.5988483443
 30
0.0
 10
17.2183354207
 20
13.5969949462
 30
0.0
 10
17.2343211987
 20
13.598981049
 30
0.0
 10
17.2474123888
 20
13.6038720179
 30
0.0
 10
17.2571524843
 20
13.6095435003
 30
0.0
 10
17.2659377027
 20
13.61613072
 30
0.0
 10
17.2749203429
 20
13.625735375
 30
0.0
 10
17.2796981543
 20
13.6349894259
 30
0.0
 10
17.2811405811
 20
13.6396571206
 30
0.0
  0
SPLINE
  5
356
100
AcDbEntity
  8
02___PRT_ALL_AXES
100
AcDbSpline
 62
7
  6
BYLAYER
 70
0
 71
3
 72
11
 73
7
 74
0
 42
0.0000001
 43
0.0000001
 44
0.0000000001
 40
0.0
 40
0.0
 40
0.0
 40
0.0
 40
0.2268632804
 40
0.4650145788
 40
0.722100556
 40
1.0
 40
1.0
 40
1.0
 40
1.0
 10
17.7419502745
 20
13.6160629007
 30
0.0
 10
17.743336792
 20
13.6132349028
 30
0.0
 10
17.7472163282
 20
13.6078962021
 30
0.0
 10
17.7555153891
 20
13.6020117576
 30
0.0
 10
17.7657592931
 20
13.5984332452
 30
0.0
 10
17.7732193007
 20
13.597693179
 30
0.0
 10
17.7770774532
 20
13.597693179
 30
0.0
  0
SPLINE
  5
357
100
AcDbEntity
  8
0
100
AcDbSpline
 62
7
  6
BYLAYER
 70
0
 71
3
 72
14
 73
10
 74
0
 42
0.0000001
 43
0.0000001
 44
0.0000000001
 40
0.0
 40
0.0
 40
0.0
 40
0.0
 40
0.1149688958
 40
0.2311127348
 40
0.3495166677
 40
0.4711122329
 40
0.5966236021
 40
0.7265260854
 40
1.0
 40
1.0
 40
1.0
 40
1.0
 10
17.138655693
 20
13.5690957069
 30
0.0
 10
17.144688924
 20
13.5568034381
 30
0.0
 10
17.1586642173
 20
13.5329525821
 30
0.0
 10
17.1848139554
 20
13.5003859414
 30
0.0
 10
17.2158770689
 20
13.47129879
 30
0.0
 10
17.2514771371
 20
13.4460289866
 30
0.0
 10
17.2912058691
 20
13.4248493881
 30
0.0
 10
17.3500136943
 20
13.4019721097
 30
0.0
 10
17.3975324689
 20
13.3922349189
 30
0.0
 10
17.4299105124
 20
13.3886915044
 30
0.0
  0
SPLINE
  5
358
100
AcDbEntity
  8
0
100
AcDbSpline
 62
7
  6
BYLAYER
 70
0
 71
3
 72
21
 73
17
 74
0
 42
0.0000001
 43
0.0000001
 44
0.0000000001
 40
0.0
 40
0.0
 40
0.0
 40
0.0
 40
0.0504633651
 40
0.101756664
 40
0.1546128654
 40
0.209594435
 40
0.2670558917
 40
0.3271392014
 40
0.3897895952
 40
0.4547818999
 40
0.5217511307
 40
0.5902255021
 40
0.729282825
 40
0.7988280091
 40
0.8675166475
 40
1.0
 40
1.0
 40
1.0
 40
1.0
 10
18.100497378
 20
14.0411280296
 30
0.0
 10
18.1081999418
 20
14.0254346168
 30
0.0
 10
18.1207623258
 20
13.9922357685
 30
0.0
 10
18.1301760522
 20
13.9392218474
 30
0.0
 10
18.1301151654
 20
13.8838223337
 30
0.0
 10
18.1206366907
 20
13.8271090691
 30
0.0
 10
18.1019809954
 20
13.7701102077
 30
0.0
 10
18.0745313961
 20
13.7138449889
 30
0.0
 10
18.0388114379
 20
13.6593098763
 30
0.0
 10
17.9954828462
 20
13.6074755525
 30
0.0
 10
17.9453290477
 20
13.559257856
 30
0.0
 10
17.8702510178
 20
13.5006899815
 30
0.0
 10
17.7859898189
 20
13.4532031215
 30
0.0
 10
17.6962224664
 20
13.4186389145
 30
0.0
 10
17.6057107648
 20
13.3937215557
 30
0.0
 10
17.5357937209
 20
13.3854724524
 30
0.0
 10
17.4898981479
 20
13.3854724524
 30
0.0
  0
SPLINE
  5
359
100
AcDbEntity
  8
0
100
AcDbSpline
 62
7
  6
BYLAYER
 70
0
 71
3
 72
17
 73
13
 74
0
 42
0.0000001
 43
0.0000001
 44
0.0000000001
 40
0.0
 40
0.0
 40
0.0
 40
0.0
 40
0.1726970635
 40
0.3317739749
 40
0.4761791336
 40
0.6056200067
 40
0.7204930489
 40
0.8222547566
 40
0.8691375357
 40
0.9139663924
 40
0.9573548095
 40
1.0
 40
1.0
 40
1.0
 40
1.0
 10
17.9977714586
 20
12.9246661847
 30
0.0
 10
18.0033954041
 20
12.9428652788
 30
0.0
 10
18.0152959462
 20
12.9775064366
 30
0.0
 10
18.0360515428
 20
13.0258146318
 30
0.0
 10
18.058786246
 20
13.0678929034
 30
0.0
 10
18.0832432632
 20
13.1032420173
 30
0.0
 10
18.10916988
 20
13.1314505976
 30
0.0
 10
18.1324851198
 20
13.149179659
 30
0.0
 10
18.1514928984
 20
13.1589842538
 30
0.0
 10
18.1655249962
 20
13.1641265184
 30
0.0
 10
18.1796679952
 20
13.1672257723
 30
0.0
 10
18.1891713943
 20
13.1679160988
 30
0.0
 10
18.1938751002
 20
13.1679157134
 30
0.0
  0
SPLINE
  5
35A
100
AcDbEntity
  8
0
100
AcDbSpline
 62
7
  6
BYLAYER
 70
0
 71
3
 72
28
 73
24
 74
0
 42
0.0000001
 43
0.0000001
 44
0.0000000001
 40
0.0
 40
0.0
 40
0.0
 40
0.0
 40
0.0673782762
 40
0.1393891274
 40
0.2149116234
 40
0.2927494292
 40
0.3716170765
 40
0.4502071462
 40
0.5272175557
 40
0.6013927846
 40
0.6715636375
 40
0.7366916216
 40
0.7959224504
 40
0.8231381145
 40
0.8486826087
 40
0.8725391838
 40
0.8947260852
 40
0.9152986839
 40
0.9343669104
 40
0.9520971503
 40
0.9687282782
 40
0.9845709559
 40
1.0
 40
1.0
 40
1.0
 40
1.0
 10
17.9977714586
 20
12.9246661847
 30
0.0
 10
17.9902105333
 20
12.9001990212
 30
0.0
 10
17.9766816676
 20
12.8489159489
 30
0.0
 10
17.9613193702
 20
12.7686377899
 30
0.0
 10
17.9504286454
 20
12.6836234165
 30
0.0
 10
17.9442223168
 20
12.5955325702
 30
0.0
 10
17.9428275065
 20
12.5060694772
 30
0.0
 10
17.9462703174
 20
12.4169762443
 30
0.0
 10
17.9544830935
 20
12.3299838606
 30
0.0
 10
17.9673018335
 20
12.2467815775
 30
0.0
 10
17.9844713487
 20
12.1689742203
 30
0.0
 10
18.0056526508
 20
12.0980637475
 30
0.0
 10
18.0268638066
 20
12.0443916309
 30
0.0
 10
18.0457210215
 20
12.0062077042
 30
0.0
 10
18.0601891977
 20
11.980912344
 30
0.0
 10
18.0753161697
 20
11.9582663766
 30
0.0
 10
18.0910297676
 20
11.9383738373
 30
0.0
 10
18.1072688714
 20
11.9213347541
 30
0.0
 10
18.1239606529
 20
11.9072279419
 30
0.0
 10
18.1410446002
 20
11.8961364988
 30
0.0
 10
18.1584505724
 20
11.8881330724
 30
0.0
 10
18.1760883225
 20
11.8832890223
 30
0.0
 10
18.1880003127
 20
11.8822043201
 30
0.0
 10
18.1938645027
 20
11.8822038396
 30
0.0
  0
SPLINE
  5
35B
100
AcDbEntity
  8
02___PRT_ALL_AXES
100
AcDbSpline
 62
7
  6
BYLAYER
 70
0
 71
3
 72
17
 73
13
 74
0
 42
0.0000001
 43
0.0000001
 44
0.0000000001
 40
0.0
 40
0.0
 40
0.0
 40
0.0
 40
0.0328478074
 40
0.0676279268
 40
0.1059114104
 40
0.148752321
 40
0.2498936423
 40
0.3721854089
 40
0.5131913382
 40
0.6685235917
 40
0.8329156281
 40
1.0
 40
1.0
 40
1.0
 40
1.0
 10
18.3813992055
 20
13.0937629833
 30
0.0
 10
18.3806614214
 20
13.0937621945
 30
0.0
 10
18.3791359351
 20
13.0935472659
 30
0.0
 10
18.3769237801
 20
13.0926156267
 30
0.0
 10
18.3747862522
 20
13.0911002148
 30
0.0
 10
18.3718982933
 20
13.0881763481
 30
0.0
 10
18.3686576645
 20
13.0830806348
 30
0.0
 10
18.3655161064
 20
13.0754976512
 30
0.0
 10
18.363039706
 20
13.0664046635
 30
0.0
 10
18.3613360754
 20
13.0561829692
 30
0.0
 10
18.3604866824
 20
13.0452696222
 30
0.0
 10
18.3605121254
 20
13.0378147827
 30
0.0
 10
18.3606801753
 20
13.0340657162
 30
0.0
  0
SPLINE
  5
35C
100
AcDbEntity
  8
02___PRT_ALL_AXES
100
AcDbSpline
 62
7
  6
BYLAYER
 70
0
 71
3
 72
13
 73
9
 74
0
 42
0.0000001
 43
0.0000001
 44
0.0000000001
 40
0.0
 40
0.0
 40
0.0
 40
0.0
 40
0.0859159704
 40
0.1775515467
 40
0.2793768109
 40
0.3943308344
 40
0.6682047645
 40
1.0
 40
1.0
 40
1.0
 40
1.0
 10
18.5064849628
 20
12.8388916794
 30
0.0
 10
18.5056959205
 20
12.838892691
 30
0.0
 10
18.5040568379
 20
12.8386477467
 30
0.0
 10
18.5016952106
 20
12.8375813594
 30
0.0
 10
18.4994233262
 20
12.8358577905
 30
0.0
 10
18.4963635306
 20
12.832525249
 30
0.0
 10
18.4929910938
 20
12.8267573371
 30
0.0
 10
18.4910358133
 20
12.8215322824
 30
0.0
 10
18.490136144
 20
12.8186209513
 30
0.0
  0
SPLINE
  5
35D
100
AcDbEntity
  8
02___PRT_ALL_AXES
100
AcDbSpline
 62
7
  6
BYLAYER
 70
0
 71
3
 72
20
 73
16
 74
0
 42
0.0000001
 43
0.0000001
 44
0.0000000001
 40
0.0
 40
0.0
 40
0.0
 40
0.0
 40
0.0313821286
 40
0.0665190451
 40
0.1078616079
 40
0.1565013247
 40
0.2125273193
 40
0.2754533903
 40
0.3443437252
 40
0.4180146626
 40
0.5738942688
 40
0.7308681214
 40
0.8764342002
 40
0.9415731979
 40
1.0
 40
1.0
 40
1.0
 40
1.0
 10
18.4254788355
 20
12.1103841617
 30
0.0
 10
18.4243883396
 20
12.1103829837
 30
0.0
 10
18.4220601441
 20
12.1098899152
 30
0.0
 10
18.4188585429
 20
12.1078353005
 30
0.0
 10
18.4158866737
 20
12.1046173868
 30
0.0
 10
18.4131683147
 20
12.1003096816
 30
0.0
 10
18.4107375293
 20
12.0950032347
 30
0.0
 10
18.4086510343
 20
12.0888083556
 30
0.0
 10
18.4069513806
 20
12.0818654572
 30
0.0
 10
18.405230027
 20
12.071631548
 30
0.0
 10
18.4043128479
 20
12.0581930788
 30
0.0
 10
18.4050826337
 20
12.0422507869
 30
0.0
 10
18.4072680741
 20
12.0296122881
 30
0.0
 10
18.4099836421
 20
12.0206529767
 30
0.0
 10
18.4116221495
 20
12.0166726035
 30
0.0
 10
18.4125165706
 20
12.0148499649
 30
0.0
  0
SPLINE
  5
35E
100
AcDbEntity
  8
02___PRT_ALL_AXES
100
AcDbSpline
 62
7
  6
BYLAYER
 70
0
 71
3
 72
17
 73
13
 74
0
 42
0.0000001
 43
0.0000001
 44
0.0000000001
 40
0.0
 40
0.0
 40
0.0
 40
0.0
 40
0.0328478074
 40
0.0676279268
 40
0.1059114104
 40
0.148752321
 40
0.2498936423
 40
0.3721854089
 40
0.5131913382
 40
0.6685235917
 40
0.8329156281
 40
1.0
 40
1.0
 40
1.0
 40
1.0
 10
18.2668574342
 20
12.0634991955
 30
0.0
 10
18.2661196501
 20
12.0634984067
 30
0.0
 10
18.2645941639
 20
12.0632834781
 30
0.0
 10
18.2623820089
 20
12.0623518389
 30
0.0
 10
18.2602444809
 20
12.0608364269
 30
0.0
 10
18.257356522
 20
12.0579125603
 30
0.0
 10
18.2541158933
 20
12.052816847
 30
0.0
 10
18.2509743351
 20
12.0452338634
 30
0.0
 10
18.2484979347
 20
12.0361408757
 30
0.0
 10
18.2467943042
 20
12.0259191814
 30
0.0
 10
18.2459449111
 20
12.0150058343
 30
0.0
 10
18.2459703541
 20
12.0075509948
 30
0.0
 10
18.246138404
 20
12.0038019283
 30
0.0
  0
SPLINE
  5
35F
100
AcDbEntity
  8
02___PRT_ALL_AXES
100
AcDbSpline
 62
7
  6
BYLAYER
 70
0
 71
3
 72
13
 73
9
 74
0
 42
0.0000001
 43
0.0000001
 44
0.0000000001
 40
0.0
 40
0.0
 40
0.0
 40
0.0
 40
0.0859159704
 40
0.1775515467
 40
0.2793768109
 40
0.3943308344
 40
0.6682047645
 40
1.0
 40
1.0
 40
1.0
 40
1.0
 10
18.1417979019
 20
12.3183703978
 30
0.0
 10
18.1410088596
 20
12.3183714094
 30
0.0
 10
18.1393697769
 20
12.3181264651
 30
0.0
 10
18.1370081496
 20
12.3170600778
 30
0.0
 10
18.1347362652
 20
12.3153365089
 30
0.0
 10
18.1316764696
 20
12.3120039675
 30
0.0
 10
18.1283040328
 20
12.3062360555
 30
0.0
 10
18.1263487523
 20
12.3010110008
 30
0.0
 10
18.125449083
 20
12.2980996697
 30
0.0
  0
SPLINE
  5
360
100
AcDbEntity
  8
02___PRT_ALL_AXES
100
AcDbSpline
 62
7
  6
BYLAYER
 70
0
 71
3
 72
20
 73
16
 74
0
 42
0.0000001
 43
0.0000001
 44
0.0000000001
 40
0.0
 40
0.0
 40
0.0
 40
0.0
 40
0.0313821286
 40
0.0665190451
 40
0.1078616079
 40
0.1565013247
 40
0.2125273193
 40
0.2754533903
 40
0.3443437252
 40
0.4180146626
 40
0.5738942688
 40
0.7308681214
 40
0.8764342002
 40
0.9415731979
 40
1.0
 40
1.0
 40
1.0
 40
1.0
 10
18.2227783009
 20
13.0468759017
 30
0.0
 10
18.221687805
 20
13.0468747237
 30
0.0
 10
18.2193596095
 20
13.0463816552
 30
0.0
 10
18.2161580083
 20
13.0443270405
 30
0.0
 10
18.2131861391
 20
13.0411091268
 30
0.0
 10
18.2104677801
 20
13.0368014216
 30
0.0
 10
18.2080369947
 20
13.0314949747
 30
0.0
 10
18.2059504996
 20
13.0253000956
 30
0.0
 10
18.204250846
 20
13.0183571972
 30
0.0
 10
18.2025294924
 20
13.0081232879
 30
0.0
 10
18.2016123133
 20
12.9946848188
 30
0.0
 10
18.2023820991
 20
12.9787425269
 30
0.0
 10
18.2045675395
 20
12.9661040281
 30
0.0
 10
18.2072831075
 20
12.9571447167
 30
0.0
 10
18.2089216149
 20
12.9531643435
 30
0.0
 10
18.209816036
 20
12.9513417049
 30
0.0
  0
SPLINE
  5
361
100
AcDbEntity
  8
0
100
AcDbSpline
 62
7
  6
BYLAYER
 70
0
 71
3
 72
28
 73
24
 74
0
 42
0.0000001
 43
0.0000001
 44
0.0000000001
 40
0.0
 40
0.0
 40
0.0
 40
0.0
 40
0.0154290441
 40
0.0312717218
 40
0.0479028497
 40
0.0656330896
 40
0.0847013161
 40
0.1052739148
 40
0.1274608162
 40
0.1513173913
 40
0.1768618855
 40
0.2040775496
 40
0.2633083784
 40
0.3284363625
 40
0.3986072154
 40
0.4727824443
 40
0.5497928538
 40
0.6283829235
 40
0.7072505708
 40
0.7850883766
 40
0.8606108726
 40
0.9326217238
 40
1.0
 40
1.0
 40
1.0
 40
1.0
 10
18.3241394408
 20
13.1679157134
 30
0.0
 10
18.3300036308
 20
13.1679152329
 30
0.0
 10
18.341915621
 20
13.1668305307
 30
0.0
 10
18.3595533711
 20
13.1619864805
 30
0.0
 10
18.3769593433
 20
13.1539830542
 30
0.0
 10
18.3940432906
 20
13.1428916111
 30
0.0
 10
18.4107350721
 20
13.1287847989
 30
0.0
 10
18.4269741759
 20
13.1117457156
 30
0.0
 10
18.4426877738
 20
13.0918531764
 30
0.0
 10
18.4578147458
 20
13.069207209
 30
0.0
 10
18.472282922
 20
13.0439118488
 30
0.0
 10
18.4911401369
 20
13.0057279221
 30
0.0
 10
18.5123512927
 20
12.9520558055
 30
0.0
 10
18.5335325948
 20
12.8811453327
 30
0.0
 10
18.55070211
 20
12.8033379754
 30
0.0
 10
18.5635208501
 20
12.7201356923
 30
0.0
 10
18.5717336261
 20
12.6331433086
 30
0.0
 10
18.575176437
 20
12.5440500758
 30
0.0
 10
18.5737816267
 20
12.4545869828
 30
0.0
 10
18.5675752981
 20
12.3664961365
 30
0.0
 10
18.5566845733
 20
12.2814817631
 30
0.0
 10
18.5413222759
 20
12.201203604
 30
0.0
 10
18.5277934103
 20
12.1499205318
 30
0.0
 10
18.5202324849
 20
12.1254533683
 30
0.0
  0
SPLINE
  5
362
100
AcDbEntity
  8
0
100
AcDbSpline
 62
7
  6
BYLAYER
 70
0
 71
3
 72
17
 73
13
 74
0
 42
0.0000001
 43
0.0000001
 44
0.0000000001
 40
0.0
 40
0.0
 40
0.0
 40
0.0
 40
0.0426451905
 40
0.0860336076
 40
0.1308624643
 40
0.1777452434
 40
0.2795069511
 40
0.3943799933
 40
0.5238208664
 40
0.6682260251
 40
0.8273029365
 40
1.0
 40
1.0
 40
1.0
 40
1.0
 10
18.3241288433
 20
11.8822038396
 30
0.0
 10
18.3288325492
 20
11.8822034542
 30
0.0
 10
18.3383359483
 20
11.8828937807
 30
0.0
 10
18.3524789474
 20
11.8859930346
 30
0.0
 10
18.3665110451
 20
11.8911352992
 30
0.0
 10
18.3855188237
 20
11.900939894
 30
0.0
 10
18.4088340635
 20
11.9186689554
 30
0.0
 10
18.4347606803
 20
11.9468775357
 30
0.0
 10
18.4592176976
 20
11.9822266496
 30
0.0
 10
18.4819524007
 20
12.0243049212
 30
0.0
 10
18.5027079973
 20
12.0726131164
 30
0.0
 10
18.5146085394
 20
12.1072542742
 30
0.0
 10
18.5202324849
 20
12.1254533683
 30
0.0
  0
SPLINE
  5
363
100
AcDbEntity
  8
0
100
AcDbSpline
 62
7
  6
BYLAYER
 70
0
 71
3
 72
25
 73
21
 74
0
 42
0.0000001
 43
0.0000001
 44
0.0000000001
 40
0.0
 40
0.0
 40
0.0
 40
0.0
 40
0.0154314814
 40
0.0312761461
 40
0.0655508911
 40
0.0846198278
 40
0.1051942799
 40
0.1512044473
 40
0.203945943
 40
0.2631839107
 40
0.3283203954
 40
0.3985019385
 40
0.4726894734
 40
0.5497126393
 40
0.6283157094
 40
0.707198049
 40
0.7850501807
 40
0.8605830016
 40
0.9326149855
 40
1.0
 40
1.0
 40
1.0
 40
1.0
 10
18.3241439552
 20
12.2393456839
 30
0.0
 10
18.3215375708
 20
12.2393447832
 30
0.0
 10
18.3162428357
 20
12.2398274532
 30
0.0
 10
18.3055189514
 20
12.2427666025
 30
0.0
 10
18.2951996901
 20
12.2486603515
 30
0.0
 10
18.2856566901
 20
12.2567266623
 30
0.0
 10
18.2756564485
 20
12.2672196659
 30
0.0
 10
18.263913723
 20
12.2837180321
 30
0.0
 10
18.2515034171
 20
12.3074049646
 30
0.0
 10
18.2404869735
 20
12.3352677496
 30
0.0
 10
18.2310717809
 20
12.3667854868
 30
0.0
 10
18.2234396435
 20
12.4013664511
 30
0.0
 10
18.2177418963
 20
12.4383466197
 30
0.0
 10
18.2140910878
 20
12.4770112375
 30
0.0
 10
18.2125598268
 20
12.5166099569
 30
0.0
 10
18.2131790478
 20
12.556373365
 30
0.0
 10
18.2159376492
 20
12.5955264534
 30
0.0
 10
18.220777628
 20
12.6333135565
 30
0.0
 10
18.2276063636
 20
12.6689943692
 30
0.0
 10
18.2336190062
 20
12.6917886353
 30
0.0
 10
18.236979323
 20
12.7026626246
 30
0.0
  0
SPLINE
  5
364
100
AcDbEntity
  8
0
100
AcDbSpline
 62
7
  6
BYLAYER
 70
0
 71
3
 72
15
 73
11
 74
0
 42
0.0000001
 43
0.0000001
 44
0.0000000001
 40
0.0
 40
0.0
 40
0.0
 40
0.0
 40
0.0878884352
 40
0.1841989804
 40
0.2909070302
 40
0.4091445024
 40
0.5393766052
 40
0.6815749668
 40
0.8353821842
 40
1.0
 40
1.0
 40
1.0
 40
1.0
 10
17.4100140836
 20
13.3918798784
 30
0.0
 10
17.3988823886
 20
13.3879442294
 30
0.0
 10
17.3764681424
 20
13.3769701201
 30
0.0
 10
17.3450926913
 20
13.3533798572
 30
0.0
 10
17.3148795048
 20
13.3223649934
 30
0.0
 10
17.286039631
 20
13.2842286995
 30
0.0
 10
17.2587718405
 20
13.2392981479
 30
0.0
 10
17.2332963719
 20
13.1879517903
 30
0.0
 10
17.209836414
 20
13.1306432772
 30
0.0
 10
17.1961123837
 20
13.0900974226
 30
0.0
 10
17.1895830524
 20
13.0689684987
 30
0.0
  0
SPLINE
  5
365
100
AcDbEntity
  8
0
100
AcDbSpline
 62
7
  6
BYLAYER
 70
0
 71
3
 72
9
 73
5
 74
0
 42
0.0000001
 43
0.0000001
 44
0.0000000001
 40
0.0
 40
0.0
 40
0.0
 40
0.0
 40
0.4905465199
 40
1.0
 40
1.0
 40
1.0
 40
1.0
 10
18.0483874994
 20
13.4987688669
 30
0.0
 10
18.0594514993
 20
13.4762228056
 30
0.0
 10
18.0805866843
 20
13.4295563339
 30
0.0
 10
18.0991707736
 20
13.3818255117
 30
0.0
 10
18.1080494644
 20
13.3573007619
 30
0.0
  0
SPLINE
  5
366
100
AcDbEntity
  8
0
100
AcDbSpline
 62
7
  6
BYLAYER
 70
0
 71
3
 72
11
 73
7
 74
0
 42
0.0000001
 43
0.0000001
 44
0.0000000001
 40
0.0
 40
0.0
 40
0.0
 40
0.0
 40
0.2777943688
 40
0.5359512557
 40
0.7756916718
 40
1.0
 40
1.0
 40
1.0
 40
1.0
 10
18.2102541974
 20
13.1681582582
 30
0.0
 10
18.2008213293
 20
13.1927684298
 30
0.0
 10
18.1808913686
 20
13.2396187805
 30
0.0
 10
18.1460944557
 20
13.304602048
 30
0.0
 10
18.1072973191
 20
13.361261439
 30
0.0
 10
18.077579095
 20
13.3940288845
 30
0.0
 10
18.0619525982
 20
13.4084758131
 30
0.0
  0
SPLINE
  5
367
100
AcDbEntity
  8
0
100
AcDbSpline
 62
7
  6
BYLAYER
 70
0
 71
3
 72
9
 73
5
 74
0
 42
0.0000001
 43
0.0000001
 44
0.0000000001
 40
0.0
 40
0.0
 40
0.0
 40
0.0
 40
0.2532654124
 40
1.0
 40
1.0
 40
1.0
 40
1.0
 10
18.0600730582
 20
13.4102011069
 30
0.0
 10
18.0569325754
 20
13.4130632532
 30
0.0
 10
18.0443320739
 20
13.4241406496
 30
0.0
 10
18.0308955923
 20
13.4342795752
 30
0.0
 10
18.0204286225
 20
13.4411639369
 30
0.0
  0
SPLINE
  5
368
100
AcDbEntity
  8
0
100
AcDbSpline
 62
7
  6
BYLAYER
 70
0
 71
3
 72
21
 73
17
 74
0
 42
0.0000001
 43
0.0000001
 44
0.0000000001
 40
0.0
 40
0.0
 40
0.0
 40
0.0
 40
0.0627396458
 40
0.1261113141
 40
0.1899397079
 40
0.2540361249
 40
0.3181219148
 40
0.3819413248
 40
0.445268753
 40
0.5079410063
 40
0.5699191415
 40
0.6312324875
 40
0.7526438526
 40
0.8134423147
 40
0.8747315042
 40
1.0
 40
1.0
 40
1.0
 40
1.0
 10
17.8723605995
 20
11.5688766042
 30
0.0
 10
17.8591068875
 20
11.5619886869
 30
0.0
 10
17.8316765949
 20
11.549595864
 30
0.0
 10
17.7884645838
 20
11.5359188787
 30
0.0
 10
17.7435798526
 20
11.5275403356
 30
0.0
 10
17.6978272038
 20
11.5248120187
 30
0.0
 10
17.6520978048
 20
11.5278696649
 30
0.0
 10
17.6072878922
 20
11.5365547405
 30
0.0
 10
17.5641974303
 20
11.5505275654
 30
0.0
 10
17.5234356081
 20
11.5692317329
 30
0.0
 10
17.4854003106
 20
11.5920589021
 30
0.0
 10
17.4387087045
 20
11.6270339659
 30
0.0
 10
17.3974067232
 20
11.6682043281
 30
0.0
 10
17.36137248
 20
11.7136553118
 30
0.0
 10
17.328049529
 20
11.7622581568
 30
0.0
 10
17.3064570949
 20
11.8012152354
 30
0.0
 10
17.2933187161
 20
11.8279884363
 30
0.0
  0
SPLINE
  5
369
100
AcDbEntity
  8
0
100
AcDbSpline
 62
7
  6
BYLAYER
 70
0
 71
3
 72
17
 73
13
 74
0
 42
0.0000001
 43
0.0000001
 44
0.0000000001
 40
0.0
 40
0.0
 40
0.0
 40
0.0
 40
0.0563057894
 40
0.1122613561
 40
0.1683939984
 40
0.2246732981
 40
0.3378903047
 40
0.4543656036
 40
0.576858101
 40
0.7077625333
 40
0.8485676695
 40
1.0
 40
1.0
 40
1.0
 40
1.0
 10
17.8500853726
 20
11.5720592494
 30
0.0
 10
17.8595958285
 20
11.5702334969
 30
0.0
 10
17.8788229233
 20
11.5678329679
 30
0.0
 10
17.9078685484
 20
11.5681745572
 30
0.0
 10
17.936601767
 20
11.5724180024
 30
0.0
 10
17.9740361939
 20
11.5829983474
 30
0.0
 10
18.0184659033
 20
11.605206635
 30
0.0
 10
18.0661009908
 20
11.6431624085
 30
0.0
 10
18.1087031386
 20
11.690725155
 30
0.0
 10
18.1469069628
 20
11.746927173
 30
0.0
 10
18.1812112576
 20
11.8112357562
 30
0.0
 10
18.2008957656
 20
11.8575518372
 30
0.0
 10
18.2102184884
 20
11.8818712293
 30
0.0
  0
SPLINE
  5
36A
100
AcDbEntity
  8
02___PRT_ALL_AXES
100
AcDbSpline
 62
7
  6
BYLAYER
 70
0
 71
3
 72
10
 73
6
 74
0
 42
0.0000001
 43
0.0000001
 44
0.0000000001
 40
0.0
 40
0.0
 40
0.0
 40
0.0
 40
0.5161344746
 40
0.7604943016
 40
1.0
 40
1.0
 40
1.0
 40
1.0
 10
17.1824554746
 20
13.6396571206
 30
0.0
 10
17.1812292283
 20
13.6356889862
 30
0.0
 10
17.1803106913
 20
13.6294640667
 30
0.0
 10
17.1815061097
 20
13.6214643002
 30
0.0
 10
17.1828597718
 20
13.6177771284
 30
0.0
 10
17.1837100179
 20
13.6160475368
 30
0.0
  0
SPLINE
  5
36B
100
AcDbEntity
  8
0
100
AcDbSpline
 62
7
  6
BYLAYER
 70
0
 71
3
 72
28
 73
24
 74
0
 42
0.0000001
 43
0.0000001
 44
0.0000000001
 40
0.0
 40
0.0
 40
0.0
 40
0.0
 40
0.0673782762
 40
0.1393891274
 40
0.2149116234
 40
0.2927494292
 40
0.3716170765
 40
0.4502071462
 40
0.5272175557
 40
0.6013927846
 40
0.6715636375
 40
0.7366916216
 40
0.7959224504
 40
0.8231381145
 40
0.8486826087
 40
0.8725391838
 40
0.8947260852
 40
0.9152986839
 40
0.9343669104
 40
0.9520971503
 40
0.9687282782
 40
0.9845709559
 40
1.0
 40
1.0
 40
1.0
 40
1.0
 10
18.1280357992
 20
12.9246661847
 30
0.0
 10
18.1204748738
 20
12.9001990212
 30
0.0
 10
18.1069460082
 20
12.8489159489
 30
0.0
 10
18.0915837108
 20
12.7686377899
 30
0.0
 10
18.080692986
 20
12.6836234165
 30
0.0
 10
18.0744866573
 20
12.5955325702
 30
0.0
 10
18.0730918471
 20
12.5060694772
 30
0.0
 10
18.076534658
 20
12.4169762443
 30
0.0
 10
18.084747434
 20
12.3299838606
 30
0.0
 10
18.0975661741
 20
12.2467815775
 30
0.0
 10
18.1147356893
 20
12.1689742203
 30
0.0
 10
18.1359169914
 20
12.0980637475
 30
0.0
 10
18.1571281472
 20
12.0443916309
 30
0.0
 10
18.1759853621
 20
12.0062077042
 30
0.0
 10
18.1904535383
 20
11.980912344
 30
0.0
 10
18.2055805103
 20
11.9582663766
 30
0.0
 10
18.2212941082
 20
11.9383738373
 30
0.0
 10
18.237533212
 20
11.9213347541
 30
0.0
 10
18.2542249935
 20
11.9072279419
 30
0.0
 10
18.2713089408
 20
11.8961364988
 30
0.0
 10
18.288714913
 20
11.8881330724
 30
0.0
 10
18.3063526631
 20
11.8832890223
 30
0.0
 10
18.3182646533
 20
11.8822043201
 30
0.0
 10
18.3241288433
 20
11.8822038396
 30
0.0
  0
SPLINE
  5
36C
100
AcDbEntity
  8
02___PRT_ALL_AXES
100
AcDbSpline
 62
7
  6
BYLAYER
 70
0
 71
3
 72
13
 73
9
 74
0
 42
0.0000001
 43
0.0000001
 44
0.0000000001
 40
0.0
 40
0.0
 40
0.0
 40
0.0
 40
0.0859159704
 40
0.1775515467
 40
0.2793768109
 40
0.3943308344
 40
0.6682047645
 40
1.0
 40
1.0
 40
1.0
 40
1.0
 10
18.5064703822
 20
12.7317491552
 30
0.0
 10
18.5072594245
 20
12.7317481436
 30
0.0
 10
18.5088985072
 20
12.7319930878
 30
0.0
 10
18.5112601345
 20
12.7330594751
 30
0.0
 10
18.5135320189
 20
12.7347830441
 30
0.0
 10
18.5165918145
 20
12.7381155855
 30
0.0
 10
18.5199642512
 20
12.7438834975
 30
0.0
 10
18.5219195318
 20
12.7491085522
 30
0.0
 10
18.5228192011
 20
12.7520198833
 30
0.0
  0
SPLINE
  5
36D
100
AcDbEntity
  8
0
100
AcDbSpline
 62
7
  6
BYLAYER
 70
0
 71
3
 72
20
 73
16
 74
0
 42
0.0000001
 43
0.0000001
 44
0.0000000001
 40
0.0
 40
0.0
 40
0.0
 40
0.0
 40
0.0507346387
 40
0.1026049288
 40
0.1565697783
 40
0.2132859529
 40
0.3355412564
 40
0.4011063845
 40
0.4688914007
 40
0.6080283959
 40
0.6779797119
 40
0.7469937685
 40
0.814298072
 40
0.8792296436
 40
1.0
 40
1.0
 40
1.0
 40
1.0
 10
17.7766587984
 20
13.9714239099
 30
0.0
 10
17.7730440214
 20
13.9787960003
 30
0.0
 10
17.7640357236
 20
13.9929343248
 30
0.0
 10
17.7460062745
 20
14.0109905575
 30
0.0
 10
17.7239048772
 20
14.0255708745
 30
0.0
 10
17.6890016672
 20
14.0402649072
 30
0.0
 10
17.6491336724
 20
14.0460930664
 30
0.0
 10
17.6077616957
 20
14.0438978989
 30
0.0
 10
17.5642646628
 20
14.0360454647
 30
0.0
 10
17.5218451048
 20
14.0201935252
 30
0.0
 10
17.4828873515
 20
13.9975129512
 30
0.0
 10
17.456108989
 20
13.9774499035
 30
0.0
 10
17.4325171649
 20
13.9548555222
 30
0.0
 10
17.4067531124
 20
13.9229683348
 30
0.0
 10
17.3926791802
 20
13.8957145595
 30
0.0
 10
17.3869086206
 20
13.8770410219
 30
0.0
  0
SPLINE
  5
36E
100
AcDbEntity
  8
0
100
AcDbSpline
 62
7
  6
BYLAYER
 70
0
 71
3
 72
9
 73
5
 74
0
 42
0.0000001
 43
0.0000001
 44
0.0000000001
 40
0.0
 40
0.0
 40
0.0
 40
0.0
 40
0.2477283176
 40
1.0
 40
1.0
 40
1.0
 40
1.0
 10
17.7851416607
 20
13.9479333895
 30
0.0
 10
17.7840104885
 20
13.9493436023
 30
0.0
 10
17.7793116615
 20
13.9549288351
 30
0.0
 10
17.7740900422
 20
13.9600715039
 30
0.0
 10
17.769932991
 20
13.9636571503
 30
0.0
  0
SPLINE
  5
36F
100
AcDbEntity
  8
0
100
AcDbSpline
 62
7
  6
BYLAYER
 70
0
 71
3
 72
18
 73
14
 74
0
 42
0.0000001
 43
0.0000001
 44
0.0000000001
 40
0.0
 40
0.0
 40
0.0
 40
0.0
 40
0.0522728274
 40
0.1068122676
 40
0.1639305226
 40
0.2237155738
 40
0.350416942
 40
0.4843307753
 40
0.620944156
 40
0.7551844775
 40
0.8200346867
 40
0.8826750665
 40
1.0
 40
1.0
 40
1.0
 40
1.0
 10
17.769932991
 20
13.9636571503
 30
0.0
 10
17.7641416713
 20
13.9686524278
 30
0.0
 10
17.7513469811
 20
13.9777887643
 30
0.0
 10
17.7296918534
 20
13.9883199788
 30
0.0
 10
17.7056454615
 20
13.995773538
 30
0.0
 10
17.6703766479
 20
14.0015335665
 30
0.0
 10
17.6230385729
 20
14.0000787521
 30
0.0
 10
17.5663151007
 20
13.9856920854
 30
0.0
 10
17.5126298504
 20
13.9597854654
 30
0.0
 10
17.4732432865
 20
13.9297940489
 30
0.0
 10
17.4469373427
 20
13.9018515361
 30
0.0
 10
17.4255417836
 20
13.8730740034
 30
0.0
 10
17.4137654732
 20
13.8490408423
 30
0.0
 10
17.4086973254
 20
13.8326403099
 30
0.0
  0
SPLINE
  5
370
100
AcDbEntity
  8
02___PRT_ALL_AXES
100
AcDbSpline
 62
7
  6
BYLAYER
 70
0
 71
3
 72
15
 73
11
 74
0
 42
0.0000001
 43
0.0000001
 44
0.0000000001
 40
0.0
 40
0.0
 40
0.0
 40
0.0
 40
0.2698240389
 40
0.4092446546
 40
0.5448668238
 40
0.6726306825
 40
0.7902103718
 40
0.8979727675
 40
0.9494028895
 40
1.0
 40
1.0
 40
1.0
 40
1.0
 10
17.8030131307
 20
13.6816210622
 30
0.0
 10
17.7936912766
 20
13.6816210622
 30
0.0
 10
17.7794150176
 20
13.6782455376
 30
0.0
 10
17.7629678061
 20
13.6689647993
 30
0.0
 10
17.7523296609
 20
13.6598275007
 30
0.0
 10
17.7443438706
 20
13.6492213509
 30
0.0
 10
17.7395706312
 20
13.6378356892
 30
0.0
 10
17.7386522654
 20
13.6281235658
 30
0.0
 10
17.7399245154
 20
13.6209524105
 30
0.0
 10
17.7411807599
 20
13.6176324341
 30
0.0
 10
17.7419502745
 20
13.6160629007
 30
0.0
  0
SPLINE
  5
371
100
AcDbEntity
  8
02___PRT_ALL_AXES
100
AcDbSpline
 62
7
  6
BYLAYER
 70
0
 71
3
 72
18
 73
14
 74
0
 42
0.0000001
 43
0.0000001
 44
0.0000000001
 40
0.0
 40
0.0
 40
0.0
 40
0.0
 40
0.0507617329
 40
0.1026631579
 40
0.1566623213
 40
0.2134123122
 40
0.335740367
 40
0.4688971152
 40
0.6081052505
 40
0.6780929809
 40
0.7471436678
 40
0.8791658824
 40
1.0
 40
1.0
 40
1.0
 40
1.0
 10
17.9848476494
 20
14.138034507
 30
0.0
 10
17.98394222
 20
14.1398763538
 30
0.0
 10
17.9816886211
 20
14.143409124
 30
0.0
 10
17.97718033
 20
14.1479216896
 30
0.0
 10
17.9716536541
 20
14.1515635271
 30
0.0
 10
17.962925451
 20
14.1552336996
 30
0.0
 10
17.9502222466
 20
14.1570870977
 30
0.0
 10
17.9342364686
 20
14.1551009948
 30
0.0
 10
17.9211452785
 20
14.1502100259
 30
0.0
 10
17.911405183
 20
14.1445385435
 30
0.0
 10
17.9026199646
 20
14.1379513238
 30
0.0
 10
17.8936373244
 20
14.1283466688
 30
0.0
 10
17.888859513
 20
14.119092618
 30
0.0
 10
17.8874170862
 20
14.1144249232
 30
0.0
  0
SPLINE
  5
372
100
AcDbEntity
  8
02___PRT_ALL_AXES
100
AcDbSpline
 62
7
  6
BYLAYER
 70
0
 71
3
 72
25
 73
21
 74
0
 42
0.0000001
 43
0.0000001
 44
0.0000000001
 40
0.0
 40
0.0
 40
0.0
 40
0.0
 40
0.0801435105
 40
0.1060445584
 40
0.1343712276
 40
0.1979954058
 40
0.2698745281
 40
0.3481959508
 40
0.4307439282
 40
0.5150560429
 40
0.5985887239
 40
0.67882665
 40
0.7534447975
 40
0.8204517212
 40
0.8783749898
 40
0.9266090667
 40
0.9473234
 40
0.9661082258
 40
0.9834461605
 40
1.0
 40
1.0
 40
1.0
 40
1.0
 10
18.1259178928
 20
12.6189075214
 30
0.0
 10
18.128992376
 20
12.6198162923
 30
0.0
 10
18.1323098747
 20
12.6231134343
 30
0.0
 10
18.1351870134
 20
12.6276019358
 30
0.0
 10
18.1373841351
 20
12.6317916801
 30
0.0
 10
18.1397434401
 20
12.6379216253
 30
0.0
 10
18.1419288443
 20
12.6462063973
 30
0.0
 10
18.1434793995
 20
12.6553979813
 30
0.0
 10
18.1443407388
 20
12.6651775864
 30
0.0
 10
18.1444819369
 20
12.6752019194
 30
0.0
 10
18.1438976926
 20
12.6851178764
 30
0.0
 10
18.1426078111
 20
12.6945769881
 30
0.0
 10
18.1406619482
 20
12.7032484676
 30
0.0
 10
18.1381289683
 20
12.7108381553
 30
0.0
 10
18.13509543
 20
12.717088404
 30
0.0
 10
18.1320791233
 20
12.7212319872
 30
0.0
 10
18.1294531592
 20
12.7235801032
 30
0.0
 10
18.1275164138
 20
12.724796648
 30
0.0
 10
18.1255253072
 20
12.7255351286
 30
0.0
 10
18.1241638589
 20
12.7256991363
 30
0.0
 10
18.123501659
 20
12.7256970596
 30
0.0
  0
SPLINE
  5
373
100
AcDbEntity
  8
0
100
AcDbSpline
 62
7
  6
BYLAYER
 70
0
 71
3
 72
17
 73
13
 74
0
 42
0.0000001
 43
0.0000001
 44
0.0000000001
 40
0.0
 40
0.0
 40
0.0
 40
0.0
 40
0.1726970635
 40
0.3317739749
 40
0.4761791336
 40
0.6056200067
 40
0.7204930489
 40
0.8222547566
 40
0.8691375357
 40
0.9139663924
 40
0.9573548095
 40
1.0
 40
1.0
 40
1.0
 40
1.0
 10
18.1280357992
 20
12.9246661847
 30
0.0
 10
18.1336597446
 20
12.9428652788
 30
0.0
 10
18.1455602867
 20
12.9775064366
 30
0.0
 10
18.1663158834
 20
13.0258146318
 30
0.0
 10
18.1890505865
 20
13.0678929034
 30
0.0
 10
18.2135076038
 20
13.1032420173
 30
0.0
 10
18.2394342206
 20
13.1314505976
 30
0.0
 10
18.2627494604
 20
13.149179659
 30
0.0
 10
18.281757239
 20
13.1589842538
 30
0.0
 10
18.2957893367
 20
13.1641265184
 30
0.0
 10
18.3099323358
 20
13.1672257723
 30
0.0
 10
18.3194357349
 20
13.1679160988
 30
0.0
 10
18.3241394408
 20
13.1679157134
 30
0.0
  0
SPLINE
  5
374
100
AcDbEntity
  8
02___PRT_ALL_AXES
100
AcDbSpline
 62
7
  6
BYLAYER
 70
0
 71
3
 72
20
 73
16
 74
0
 42
0.0000001
 43
0.0000001
 44
0.0000000001
 40
0.0
 40
0.0
 40
0.0
 40
0.0
 40
0.0313821286
 40
0.0665190451
 40
0.1078616079
 40
0.1565013247
 40
0.2125273193
 40
0.2754533903
 40
0.3443437252
 40
0.4180146626
 40
0.5738942688
 40
0.7308681214
 40
0.8764342002
 40
0.9415731979
 40
1.0
 40
1.0
 40
1.0
 40
1.0
 10
18.4254899832
 20
12.0032436513
 30
0.0
 10
18.4265804791
 20
12.0032448293
 30
0.0
 10
18.4289086746
 20
12.0037378977
 30
0.0
 10
18.4321102758
 20
12.0057925124
 30
0.0
 10
18.435082145
 20
12.0090104262
 30
0.0
 10
18.437800504
 20
12.0133181314
 30
0.0
 10
18.4402312894
 20
12.0186245782
 30
0.0
 10
18.4423177845
 20
12.0248194574
 30
0.0
 10
18.4440174381
 20
12.0317623558
 30
0.0
 10
18.4457387917
 20
12.041996265
 30
0.0
 10
18.4466559708
 20
12.0554347342
 30
0.0
 10
18.445886185
 20
12.071377026
 30
0.0
 10
18.4437007446
 20
12.0840155249
 30
0.0
 10
18.4409851766
 20
12.0929748362
 30
0.0
 10
18.4393466692
 20
12.0969552095
 30
0.0
 10
18.4384522481
 20
12.0987778481
 30
0.0
  0
SPLINE
  5
375
100
AcDbEntity
  8
02___PRT_ALL_AXES
100
AcDbSpline
 62
7
  6
BYLAYER
 70
0
 71
3
 72
17
 73
13
 74
0
 42
0.0000001
 43
0.0000001
 44
0.0000000001
 40
0.0
 40
0.0
 40
0.0
 40
0.0
 40
0.0328478074
 40
0.0676279268
 40
0.1059114104
 40
0.148752321
 40
0.2498936423
 40
0.3721854089
 40
0.5131913382
 40
0.6685235917
 40
0.8329156281
 40
1.0
 40
1.0
 40
1.0
 40
1.0
 10
18.2668690786
 20
11.9563565697
 30
0.0
 10
18.2676068627
 20
11.9563573584
 30
0.0
 10
18.269132349
 20
11.956572287
 30
0.0
 10
18.271344504
 20
11.9575039262
 30
0.0
 10
18.2734820319
 20
11.9590193382
 30
0.0
 10
18.2763699908
 20
11.9619432049
 30
0.0
 10
18.2796106196
 20
11.9670389182
 30
0.0
 10
18.2827521777
 20
11.9746219018
 30
0.0
 10
18.2852285781
 20
11.9837148895
 30
0.0
 10
18.2869322087
 20
11.9939365837
 30
0.0
 10
18.2877816017
 20
12.0048499308
 30
0.0
 10
18.2877561587
 20
12.0123047703
 30
0.0
 10
18.2875881088
 20
12.0160538368
 30
0.0
  0
SPLINE
  5
376
100
AcDbEntity
  8
02___PRT_ALL_AXES
100
AcDbSpline
 62
7
  6
BYLAYER
 70
0
 71
3
 72
10
 73
6
 74
0
 42
0.0000001
 43
0.0000001
 44
0.0000000001
 40
0.0
 40
0.0
 40
0.0
 40
0.0
 40
0.5161344746
 40
0.7604943016
 40
1.0
 40
1.0
 40
1.0
 40
1.0
 10
17.8874170862
 20
14.1144249232
 30
0.0
 10
17.8861908399
 20
14.1104567888
 30
0.0
 10
17.8852723029
 20
14.1042318693
 30
0.0
 10
17.8864677213
 20
14.0962321028
 30
0.0
 10
17.8878213834
 20
14.0925449309
 30
0.0
 10
17.8886716295
 20
14.0908153394
 30
0.0
  0
SPLINE
  5
377
100
AcDbEntity
  8
02___PRT_ALL_AXES
100
AcDbSpline
 62
7
  6
BYLAYER
 70
0
 71
3
 72
13
 73
9
 74
0
 42
0.0000001
 43
0.0000001
 44
0.0000000001
 40
0.0
 40
0.0
 40
0.0
 40
0.0
 40
0.0859159704
 40
0.1775515467
 40
0.2793768109
 40
0.3943308344
 40
0.6682047645
 40
1.0
 40
1.0
 40
1.0
 40
1.0
 10
18.1417833213
 20
12.2112278736
 30
0.0
 10
18.1425723636
 20
12.211226862
 30
0.0
 10
18.1442114462
 20
12.2114718062
 30
0.0
 10
18.1465730735
 20
12.2125381935
 30
0.0
 10
18.1488449579
 20
12.2142617625
 30
0.0
 10
18.1519047535
 20
12.2175943039
 30
0.0
 10
18.1552771903
 20
12.2233622159
 30
0.0
 10
18.1572324708
 20
12.2285872706
 30
0.0
 10
18.1581321401
 20
12.2314986017
 30
0.0
  0
SPLINE
  5
378
100
AcDbEntity
  8
0
100
AcDbSpline
 62
7
  6
BYLAYER
 70
0
 71
3
 72
10
 73
6
 74
0
 42
0.0000001
 43
0.0000001
 44
0.0000000001
 40
0.0
 40
0.0
 40
0.0
 40
0.0
 40
0.5144921045
 40
0.7602063827
 40
1.0
 40
1.0
 40
1.0
 40
1.0
 10
17.4086973254
 20
13.8326403099
 30
0.0
 10
17.4050696159
 20
13.8209010375
 30
0.0
 10
17.4016473235
 20
13.8028089698
 30
0.0
 10
17.4020679764
 20
13.7788745159
 30
0.0
 10
17.4039147962
 20
13.7673763496
 30
0.0
 10
17.4052429248
 20
13.7618057743
 30
0.0
  0
SPLINE
  5
379
100
AcDbEntity
  8
02___PRT_ALL_AXES
100
AcDbSpline
 62
7
  6
BYLAYER
 70
0
 71
3
 72
11
 73
7
 74
0
 42
0.0000001
 43
0.0000001
 44
0.0000000001
 40
0.0
 40
0.0
 40
0.0
 40
0.0
 40
0.2268632804
 40
0.4650145788
 40
0.722100556
 40
1.0
 40
1.0
 40
1.0
 40
1.0
 10
17.4266073928
 20
14.1380191431
 30
0.0
 10
17.4252208753
 20
14.1408471411
 30
0.0
 10
17.4213413391
 20
14.1461858418
 30
0.0
 10
17.4130422782
 20
14.1520702863
 30
0.0
 10
17.4027983742
 20
14.1556487986
 30
0.0
 10
17.3953383666
 20
14.1563888648
 30
0.0
 10
17.3914802141
 20
14.1563888648
 30
0.0
  0
SPLINE
  5
37A
100
AcDbEntity
  8
02___PRT_ALL_AXES
100
AcDbSpline
 62
7
  6
BYLAYER
 70
0
 71
3
 72
18
 73
14
 74
0
 42
0.0000001
 43
0.0000001
 44
0.0000000001
 40
0.0
 40
0.0
 40
0.0
 40
0.0
 40
0.1393852211
 40
0.2927819298
 40
0.4502785
 40
0.60149873
 40
0.736802521
 40
0.7960744217
 40
0.8488586442
 40
0.894900179
 40
0.9345235345
 40
0.9688231352
 40
1.0
 40
1.0
 40
1.0
 40
1.0
 10
18.1581321401
 20
12.2314986017
 30
0.0
 10
18.1594345729
 20
12.2357132758
 30
0.0
 10
18.161425324
 20
12.2448001749
 30
0.0
 10
18.1627944626
 20
12.2590102391
 30
0.0
 10
18.1626313099
 20
12.2736645554
 30
0.0
 10
18.1609472246
 20
12.2876425114
 30
0.0
 10
18.1582932659
 20
12.2983068522
 30
0.0
 10
18.1554133967
 20
12.305598394
 30
0.0
 10
18.1530876235
 20
12.3100420466
 30
0.0
 10
18.1505364641
 20
12.3136257619
 30
0.0
 10
18.1477924612
 20
12.3162906827
 30
0.0
 10
18.1448700498
 20
12.3179703222
 30
0.0
 10
18.1427846008
 20
12.3183691327
 30
0.0
 10
18.1417979019
 20
12.3183703978
 30
0.0
  0
SPLINE
  5
37B
100
AcDbEntity
  8
02___PRT_ALL_AXES
100
AcDbSpline
 62
7
  6
BYLAYER
 70
0
 71
3
 72
15
 73
11
 74
0
 42
0.0000001
 43
0.0000001
 44
0.0000000001
 40
0.0
 40
0.0
 40
0.0
 40
0.0
 40
0.2698240389
 40
0.4092446546
 40
0.5448668238
 40
0.6726306825
 40
0.7902103718
 40
0.8979727675
 40
0.9494028895
 40
1.0
 40
1.0
 40
1.0
 40
1.0
 10
17.3914802141
 20
14.1563888648
 30
0.0
 10
17.3821583601
 20
14.1563888648
 30
0.0
 10
17.3678821011
 20
14.1530133401
 30
0.0
 10
17.3514348896
 20
14.1437326019
 30
0.0
 10
17.3407967444
 20
14.1345953033
 30
0.0
 10
17.332810954
 20
14.1239891535
 30
0.0
 10
17.3280377146
 20
14.1126034918
 30
0.0
 10
17.3271193488
 20
14.1028913684
 30
0.0
 10
17.3283915988
 20
14.0957202131
 30
0.0
 10
17.3296478434
 20
14.0924002367
 30
0.0
 10
17.3304173579
 20
14.0908307033
 30
0.0
  0
SPLINE
  5
37C
100
AcDbEntity
  8
02___PRT_ALL_AXES
100
AcDbSpline
 62
7
  6
BYLAYER
 70
0
 71
3
 72
20
 73
16
 74
0
 42
0.0000001
 43
0.0000001
 44
0.0000000001
 40
0.0
 40
0.0
 40
0.0
 40
0.0
 40
0.0313821286
 40
0.0665190451
 40
0.1078616079
 40
0.1565013247
 40
0.2125273193
 40
0.2754533903
 40
0.3443437252
 40
0.4180146626
 40
0.5738942688
 40
0.7308681214
 40
0.8764342002
 40
0.9415731979
 40
1.0
 40
1.0
 40
1.0
 40
1.0
 10
18.2227894486
 20
12.9397353913
 30
0.0
 10
18.2238799445
 20
12.9397365693
 30
0.0
 10
18.22620814
 20
12.9402296377
 30
0.0
 10
18.2294097412
 20
12.9422842524
 30
0.0
 10
18.2323816104
 20
12.9455021662
 30
0.0
 10
18.2350999694
 20
12.9498098714
 30
0.0
 10
18.2375307548
 20
12.9551163182
 30
0.0
 10
18.2396172498
 20
12.9613111974
 30
0.0
 10
18.2413169035
 20
12.9682540958
 30
0.0
 10
18.2430382571
 20
12.978488005
 30
0.0
 10
18.2439554362
 20
12.9919264742
 30
0.0
 10
18.2431856504
 20
13.007868766
 30
0.0
 10
18.24100021
 20
13.0205072649
 30
0.0
 10
18.238284642
 20
13.0294665762
 30
0.0
 10
18.2366461346
 20
13.0334469495
 30
0.0
 10
18.2357517135
 20
13.0352695881
 30
0.0
  0
SPLINE
  5
37D
100
AcDbEntity
  8
0
100
AcDbSpline
 62
7
  6
BYLAYER
 70
0
 71
3
 72
25
 73
21
 74
0
 42
0.0000001
 43
0.0000001
 44
0.0000000001
 40
0.0
 40
0.0
 40
0.0
 40
0.0
 40
0.0154314814
 40
0.0312761461
 40
0.0655508911
 40
0.0846198278
 40
0.1051942799
 40
0.1512044473
 40
0.203945943
 40
0.2631839107
 40
0.3283203954
 40
0.3985019385
 40
0.4726894734
 40
0.5497126393
 40
0.6283157094
 40
0.707198049
 40
0.7850501807
 40
0.8605830016
 40
0.9326149855
 40
1.0
 40
1.0
 40
1.0
 40
1.0
 10
18.3241243289
 20
12.810773869
 30
0.0
 10
18.3267307132
 20
12.8107747698
 30
0.0
 10
18.3320254484
 20
12.8102920997
 30
0.0
 10
18.3427493327
 20
12.8073529505
 30
0.0
 10
18.353068594
 20
12.8014592014
 30
0.0
 10
18.362611594
 20
12.7933928906
 30
0.0
 10
18.3726118356
 20
12.7828998871
 30
0.0
 10
18.3843545611
 20
12.7664015209
 30
0.0
 10
18.396764867
 20
12.7427145884
 30
0.0
 10
18.4077813106
 20
12.7148518033
 30
0.0
 10
18.4171965032
 20
12.6833340662
 30
0.0
 10
18.4248286406
 20
12.6487531019
 30
0.0
 10
18.4305263878
 20
12.6117729332
 30
0.0
 10
18.4341771963
 20
12.5731083155
 30
0.0
 10
18.4357084573
 20
12.533509596
 30
0.0
 10
18.4350892363
 20
12.4937461879
 30
0.0
 10
18.4323306349
 20
12.4545930996
 30
0.0
 10
18.4274906561
 20
12.4168059965
 30
0.0
 10
18.4206619205
 20
12.3811251838
 30
0.0
 10
18.4146492779
 20
12.3583309177
 30
0.0
 10
18.4112889611
 20
12.3474569284
 30
0.0
  0
SPLINE
  5
37E
100
AcDbEntity
  8
02___PRT_ALL_AXES
100
AcDbSpline
 62
7
  6
BYLAYER
 70
0
 71
3
 72
18
 73
14
 74
0
 42
0.0000001
 43
0.0000001
 44
0.0000000001
 40
0.0
 40
0.0
 40
0.0
 40
0.0
 40
0.0507617329
 40
0.1026631579
 40
0.1566623213
 40
0.2134123122
 40
0.335740367
 40
0.4688971152
 40
0.6081052505
 40
0.6780929809
 40
0.7471436678
 40
0.8791658824
 40
1.0
 40
1.0
 40
1.0
 40
1.0
 10
17.2798860378
 20
13.6632667044
 30
0.0
 10
17.2789806084
 20
13.6651085513
 30
0.0
 10
17.2767270095
 20
13.6686413214
 30
0.0
 10
17.2722187184
 20
13.673153887
 30
0.0
 10
17.2666920425
 20
13.6767957245
 30
0.0
 10
17.2579638394
 20
13.680465897
 30
0.0
 10
17.245260635
 20
13.6823192951
 30
0.0
 10
17.229274857
 20
13.6803331922
 30
0.0
 10
17.2161836669
 20
13.6754422233
 30
0.0
 10
17.2064435714
 20
13.6697707409
 30
0.0
 10
17.1976583531
 20
13.6631835212
 30
0.0
 10
17.1886757128
 20
13.6535788663
 30
0.0
 10
17.1838979014
 20
13.6443248154
 30
0.0
 10
17.1824554746
 20
13.6396571206
 30
0.0
  0
SPLINE
  5
37F
100
AcDbEntity
  8
02___PRT_ALL_AXES
100
AcDbSpline
 62
7
  6
BYLAYER
 70
0
 71
3
 72
16
 73
12
 74
0
 42
0.0000001
 43
0.0000001
 44
0.0000000001
 40
0.0
 40
0.0
 40
0.0
 40
0.0
 40
0.1733802529
 40
0.3391236311
 40
0.4924000775
 40
0.6296955483
 40
0.7484351984
 40
0.8476423075
 40
0.9292058445
 40
0.9653732318
 40
1.0
 40
1.0
 40
1.0
 40
1.0
 10
18.2875881088
 20
12.0160538368
 30
0.0
 10
18.2874454193
 20
12.0192371319
 30
0.0
 10
18.2869462207
 20
12.0254562308
 30
0.0
 10
18.2855473871
 20
12.0344062708
 30
0.0
 10
18.2835490566
 20
12.0425636261
 30
0.0
 10
18.2810211396
 20
12.0496653053
 30
0.0
 10
18.278039408
 20
12.0555024994
 30
0.0
 10
18.2746867114
 20
12.0599130501
 30
0.0
 10
18.2714530546
 20
12.0623877419
 30
0.0
 10
18.2687996668
 20
12.0633440498
 30
0.0
 10
18.2674938264
 20
12.0634998758
 30
0.0
 10
18.2668574342
 20
12.0634991955
 30
0.0
  0
SPLINE
  5
380
100
AcDbEntity
  8
0
100
AcDbSpline
 62
7
  6
BYLAYER
 70
0
 71
3
 72
11
 73
7
 74
0
 42
0.0000001
 43
0.0000001
 44
0.0000000001
 40
0.0
 40
0.0
 40
0.0
 40
0.0
 40
0.2643559258
 40
0.5171099892
 40
0.760912027
 40
1.0
 40
1.0
 40
1.0
 40
1.0
 10
17.3869086206
 20
13.8770410219
 30
0.0
 10
17.3843929192
 20
13.8689002092
 30
0.0
 10
17.3807095046
 20
13.8525513718
 30
0.0
 10
17.3795947539
 20
13.8279144357
 30
0.0
 10
17.3830970659
 20
13.8043109739
 30
0.0
 10
17.3885061557
 20
13.7895773402
 30
0.0
 10
17.3918988689
 20
13.782658134
 30
0.0
  0
SPLINE
  5
381
100
AcDbEntity
  8
02___PRT_ALL_AXES
100
AcDbSpline
 62
7
  6
BYLAYER
 70
0
 71
3
 72
11
 73
7
 74
0
 42
0.0000001
 43
0.0000001
 44
0.0000000001
 40
0.0
 40
0.0
 40
0.0
 40
0.0
 40
0.3156806228
 40
0.5821591739
 40
0.8046012074
 40
1.0
 40
1.0
 40
1.0
 40
1.0
 10
18.4384522481
 20
12.0987778481
 30
0.0
 10
18.4376070763
 20
12.1005001272
 30
0.0
 10
18.4358481052
 20
12.1035880697
 30
0.0
 10
18.4326836341
 20
12.1073626293
 30
0.0
 10
18.4292252764
 20
12.1097921334
 30
0.0
 10
18.4266663275
 20
12.1103854444
 30
0.0
 10
18.4254788355
 20
12.1103841617
 30
0.0
  0
SPLINE
  5
382
100
AcDbEntity
  8
02___PRT_ALL_AXES
100
AcDbSpline
 62
7
  6
BYLAYER
 70
0
 71
3
 72
11
 73
7
 74
0
 42
0.0000001
 43
0.0000001
 44
0.0000000001
 40
0.0
 40
0.0
 40
0.0
 40
0.0
 40
0.2268632804
 40
0.4650145788
 40
0.722100556
 40
1.0
 40
1.0
 40
1.0
 40
1.0
 10
17.8381403094
 20
13.6632513405
 30
0.0
 10
17.8367537918
 20
13.6660793385
 30
0.0
 10
17.8328742557
 20
13.6714180392
 30
0.0
 10
17.8245751948
 20
13.6773024837
 30
0.0
 10
17.8143312908
 20
13.680880996
 30
0.0
 10
17.8068712831
 20
13.6816210622
 30
0.0
 10
17.8030131307
 20
13.6816210622
 30
0.0
  0
SPLINE
  5
383
100
AcDbEntity
  8
02___PRT_ALL_AXES
100
AcDbSpline
 62
7
  6
BYLAYER
 70
0
 71
3
 72
25
 73
21
 74
0
 42
0.0000001
 43
0.0000001
 44
0.0000000001
 40
0.0
 40
0.0
 40
0.0
 40
0.0
 40
0.0801435105
 40
0.1060445584
 40
0.1343712276
 40
0.1979954058
 40
0.2698745281
 40
0.3481959508
 40
0.4307439282
 40
0.5150560429
 40
0.5985887239
 40
0.67882665
 40
0.7534447975
 40
0.8204517212
 40
0.8783749898
 40
0.9266090667
 40
0.9473234
 40
0.9661082258
 40
0.9834461605
 40
1.0
 40
1.0
 40
1.0
 40
1.0
 10
18.5271215092
 20
12.3247719894
 30
0.0
 10
18.5301959924
 20
12.3256807604
 30
0.0
 10
18.5335134911
 20
12.3289779024
 30
0.0
 10
18.5363906298
 20
12.3334664039
 30
0.0
 10
18.5385877515
 20
12.3376561482
 30
0.0
 10
18.5409470565
 20
12.3437860934
 30
0.0
 10
18.5431324607
 20
12.3520708654
 30
0.0
 10
18.5446830159
 20
12.3612624494
 30
0.0
 10
18.5455443552
 20
12.3710420545
 30
0.0
 10
18.5456855533
 20
12.3810663875
 30
0.0
 10
18.545101309
 20
12.3909823445
 30
0.0
 10
18.5438114275
 20
12.4004414562
 30
0.0
 10
18.5418655646
 20
12.4091129357
 30
0.0
 10
18.5393325847
 20
12.4167026234
 30
0.0
 10
18.5362990464
 20
12.422952872
 30
0.0
 10
18.5332827397
 20
12.4270964553
 30
0.0
 10
18.5306567756
 20
12.4294445713
 30
0.0
 10
18.5287200302
 20
12.4306611161
 30
0.0
 10
18.5267289236
 20
12.4313995967
 30
0.0
 10
18.5253674753
 20
12.4315636044
 30
0.0
 10
18.5247052754
 20
12.4315615277
 30
0.0
  0
SPLINE
  5
384
100
AcDbEntity
  8
0
100
AcDbSpline
 62
7
  6
BYLAYER
 70
0
 71
3
 72
15
 73
11
 74
0
 42
0.0000001
 43
0.0000001
 44
0.0000000001
 40
0.0
 40
0.0
 40
0.0
 40
0.0
 40
0.1727354959
 40
0.3318978105
 40
0.4763624808
 40
0.6058446916
 40
0.7207723983
 40
0.8225759976
 40
0.9141485651
 40
1.0
 40
1.0
 40
1.0
 40
1.0
 10
18.4112889611
 20
12.3474569284
 30
0.0
 10
18.408790067
 20
12.3393705041
 30
0.0
 10
18.4035008365
 20
12.3239762513
 30
0.0
 10
18.3942784658
 20
12.3025074804
 30
0.0
 10
18.3841748571
 20
12.283806202
 30
0.0
 10
18.3733068334
 20
12.2680979263
 30
0.0
 10
18.3617832024
 20
12.2555570295
 30
0.0
 10
18.3496788251
 20
12.246349669
 30
0.0
 10
18.3370874255
 20
12.2406564494
 30
0.0
 10
18.3283505217
 20
12.2393471378
 30
0.0
 10
18.3241439552
 20
12.2393456839
 30
0.0
  0
SPLINE
  5
385
100
AcDbEntity
  8
0
100
AcDbSpline
 62
7
  6
BYLAYER
 70
0
 71
3
 72
9
 73
5
 74
0
 42
0.0000001
 43
0.0000001
 44
0.0000000001
 40
0.0
 40
0.0
 40
0.0
 40
0.0
 40
0.4977508389
 40
1.0
 40
1.0
 40
1.0
 40
1.0
 10
17.1033579912
 20
13.6410248606
 30
0.0
 10
17.1090251906
 20
13.6294783546
 30
0.0
 10
17.1220339966
 20
13.6070429507
 30
0.0
 10
17.1380005745
 20
13.5866119796
 30
0.0
 10
17.1466506149
 20
13.5769362624
 30
0.0
  0
SPLINE
  5
386
100
AcDbEntity
  8
0
100
AcDbSpline
 62
7
  6
BYLAYER
 70
0
 71
3
 72
13
 73
9
 74
0
 42
0.0000001
 43
0.0000001
 44
0.0000000001
 40
0.0
 40
0.0
 40
0.0
 40
0.0
 40
0.1129947846
 40
0.2286199177
 40
0.3474943317
 40
0.4700695079
 40
0.7269592965
 40
1.0
 40
1.0
 40
1.0
 40
1.0
 10
17.1466506149
 20
13.5769362624
 30
0.0
 10
17.1551818112
 20
13.5673934812
 30
0.0
 10
17.1737259993
 20
13.5491957999
 30
0.0
 10
17.2051064099
 20
13.5252783713
 30
0.0
 10
17.2400230111
 20
13.5046753747
 30
0.0
 10
17.2916219562
 20
13.4815289354
 30
0.0
 10
17.3634953424
 20
13.4621868187
 30
0.0
 10
17.4236699493
 20
13.457401606
 30
0.0
 10
17.4546004461
 20
13.457401606
 30
0.0
  0
SPLINE
  5
387
100
AcDbEntity
  8
02___PRT_ALL_AXES
100
AcDbSpline
 62
7
  6
BYLAYER
 70
0
 71
3
 72
18
 73
14
 74
0
 42
0.0000001
 43
0.0000001
 44
0.0000000001
 40
0.0
 40
0.0
 40
0.0
 40
0.0
 40
0.1393852211
 40
0.2927819298
 40
0.4502785
 40
0.60149873
 40
0.736802521
 40
0.7960744217
 40
0.8488586442
 40
0.894900179
 40
0.9345235345
 40
0.9688231352
 40
1.0
 40
1.0
 40
1.0
 40
1.0
 10
18.5228192011
 20
12.7520198833
 30
0.0
 10
18.5241216339
 20
12.7562345574
 30
0.0
 10
18.526112385
 20
12.7653214565
 30
0.0
 10
18.5274815236
 20
12.7795315207
 30
0.0
 10
18.5273183709
 20
12.794185837
 30
0.0
 10
18.5256342856
 20
12.808163793
 30
0.0
 10
18.5229803269
 20
12.8188281338
 30
0.0
 10
18.5201004577
 20
12.8261196756
 30
0.0
 10
18.5177746845
 20
12.8305633282
 30
0.0
 10
18.5152235251
 20
12.8341470435
 30
0.0
 10
18.5124795222
 20
12.8368119643
 30
0.0
 10
18.5095571108
 20
12.8384916038
 30
0.0
 10
18.5074716617
 20
12.8388904143
 30
0.0
 10
18.5064849628
 20
12.8388916794
 30
0.0
  0
SPLINE
  5
388
100
AcDbEntity
  8
02___PRT_ALL_AXES
100
AcDbSpline
 62
7
  6
BYLAYER
 70
0
 71
3
 72
11
 73
7
 74
0
 42
0.0000001
 43
0.0000001
 44
0.0000000001
 40
0.0
 40
0.0
 40
0.0
 40
0.0
 40
0.3156806228
 40
0.5821591739
 40
0.8046012074
 40
1.0
 40
1.0
 40
1.0
 40
1.0
 10
18.2357517135
 20
13.0352695881
 30
0.0
 10
18.2349065417
 20
13.0369918672
 30
0.0
 10
18.2331475706
 20
13.0400798097
 30
0.0
 10
18.2299830995
 20
13.0438543693
 30
0.0
 10
18.2265247418
 20
13.0462838734
 30
0.0
 10
18.2239657929
 20
13.0468771844
 30
0.0
 10
18.2227783009
 20
13.0468759017
 30
0.0
  0
SPLINE
  5
389
100
AcDbEntity
  8
0
100
AcDbSpline
 62
7
  6
BYLAYER
 70
0
 71
3
 72
18
 73
14
 74
0
 42
0.0000001
 43
0.0000001
 44
0.0000000001
 40
0.0
 40
0.0
 40
0.0
 40
0.0
 40
0.0536165179
 40
0.1075666559
 40
0.1621679427
 40
0.2177113744
 40
0.2744460783
 40
0.332577408
 40
0.4534644299
 40
0.5811197033
 40
0.7153809041
 40
0.8554420743
 40
1.0
 40
1.0
 40
1.0
 40
1.0
 10
18.0651996761
 20
14.1130571833
 30
0.0
 10
18.0698905928
 20
14.1034997823
 30
0.0
 10
18.0782096495
 20
14.0837670835
 30
0.0
 10
18.0872718521
 20
14.0527991022
 30
0.0
 10
18.0928919997
 20
14.0206351929
 30
0.0
 10
18.0950189309
 20
13.9875041967
 30
0.0
 10
18.093657148
 20
13.9536333044
 30
0.0
 10
18.0871136034
 20
13.9072134502
 30
0.0
 10
18.0699588266
 20
13.8484041331
 30
0.0
 10
18.0365195054
 20
13.779794204
 30
0.0
 10
17.9909244739
 20
13.7139317618
 30
0.0
 10
17.934437953
 20
13.6525591175
 30
0.0
 10
17.8910176446
 20
13.6161110739
 30
0.0
 10
17.8679570619
 20
13.5990182907
 30
0.0
  0
SPLINE
  5
38A
100
AcDbEntity
  8
0
100
AcDbSpline
 62
7
  6
BYLAYER
 70
0
 71
3
 72
11
 73
7
 74
0
 42
0.0000001
 43
0.0000001
 44
0.0000000001
 40
0.0
 40
0.0
 40
0.0
 40
0.0
 40
0.2562651465
 40
0.5103151839
 40
0.7591296431
 40
1.0
 40
1.0
 40
1.0
 40
1.0
 10
17.7782881995
 20
13.5422370067
 30
0.0
 10
17.7528617299
 20
13.5286051615
 30
0.0
 10
17.7005971754
 20
13.5043847548
 30
0.0
 10
17.6192117294
 20
13.4776765464
 30
0.0
 10
17.536901635
 20
13.4612629967
 30
0.0
 10
17.4817174844
 20
13.457401606
 30
0.0
 10
17.4546004461
 20
13.457401606
 30
0.0
  0
SPLINE
  5
38B
100
AcDbEntity
  8
0
100
AcDbSpline
 62
7
  6
BYLAYER
 70
0
 71
3
 72
11
 73
7
 74
0
 42
0.0000001
 43
0.0000001
 44
0.0000000001
 40
0.0
 40
0.0
 40
0.0
 40
0.0
 40
0.4424088327
 40
0.6977493597
 40
0.8409635203
 40
1.0
 40
1.0
 40
1.0
 40
1.0
 10
18.0204414635
 20
13.4411538155
 30
0.0
 10
18.0011542774
 20
13.4538332317
 30
0.0
 10
17.9676927402
 20
13.4696126098
 30
0.0
 10
17.9247729036
 20
13.4794688439
 30
0.0
 10
17.8957611553
 20
13.482148483
 30
0.0
 10
17.8799429567
 20
13.4818365137
 30
0.0
 10
17.8716783386
 20
13.4811000987
 30
0.0
  0
SPLINE
  5
38C
100
AcDbEntity
  8
02___PRT_ALL_AXES
100
AcDbSpline
 62
7
  6
BYLAYER
 70
0
 71
3
 72
16
 73
12
 74
0
 42
0.0000001
 43
0.0000001
 44
0.0000000001
 40
0.0
 40
0.0
 40
0.0
 40
0.0
 40
0.1733802529
 40
0.3391236311
 40
0.4924000775
 40
0.6296955483
 40
0.7484351984
 40
0.8476423075
 40
0.9292058445
 40
0.9653732318
 40
1.0
 40
1.0
 40
1.0
 40
1.0
 10
18.4021298801
 20
13.0463176246
 30
0.0
 10
18.4019871906
 20
13.0495009198
 30
0.0
 10
18.401487992
 20
13.0557200186
 30
0.0
 10
18.4000891584
 20
13.0646700586
 30
0.0
 10
18.3980908278
 20
13.072827414
 30
0.0
 10
18.3955629109
 20
13.0799290932
 30
0.0
 10
18.3925811792
 20
13.0857662872
 30
0.0
 10
18.3892284826
 20
13.0901768379
 30
0.0
 10
18.3859948259
 20
13.0926515298
 30
0.0
 10
18.383341438
 20
13.0936078377
 30
0.0
 10
18.3820355977
 20
13.0937636637
 30
0.0
 10
18.3813992055
 20
13.0937629833
 30
0.0
  0
SPLINE
  5
38D
100
AcDbEntity
  8
0
100
AcDbSpline
 62
7
  6
BYLAYER
 70
0
 71
3
 72
15
 73
11
 74
0
 42
0.0000001
 43
0.0000001
 44
0.0000000001
 40
0.0
 40
0.0
 40
0.0
 40
0.0
 40
0.0961941024
 40
0.1977436259
 40
0.3066982423
 40
0.4245729732
 40
0.5523848497
 40
0.690762118
 40
0.840005448
 40
1.0
 40
1.0
 40
1.0
 40
1.0
 10
17.8111320714
 20
11.5795380537
 30
0.0
 10
17.801817998
 20
11.5813258413
 30
0.0
 10
17.7829866157
 20
11.5868365406
 30
0.0
 10
17.7557322404
 20
11.6002149102
 30
0.0
 10
17.7290405484
 20
11.6187256326
 30
0.0
 10
17.703042565
 20
11.6422274645
 30
0.0
 10
17.677845635
 20
11.670578555
 30
0.0
 10
17.6535641198
 20
11.7036265452
 30
0.0
 10
17.6303252073
 20
11.7411896287
 30
0.0
 10
17.6160896369
 20
11.7681785782
 30
0.0
 10
17.6091403398
 20
11.7823397568
 30
0.0
  0
SPLINE
  5
38E
100
AcDbEntity
  8
0
100
AcDbSpline
 62
7
  6
BYLAYER
 70
0
 71
3
 72
43
 73
39
 74
0
 42
0.0000001
 43
0.0000001
 44
0.0000000001
 40
0.0
 40
0.0
 40
0.0
 40
0.0
 40
0.050141467
 40
0.1037185831
 40
0.1604558073
 40
0.2200198118
 40
0.2820136577
 40
0.3460086441
 40
0.4115537647
 40
0.4781870476
 40
0.5454486035
 40
0.579178295
 40
0.6129013297
 40
0.6465678969
 40
0.6801323698
 40
0.7135547855
 40
0.7468028422
 40
0.7798551533
 40
0.8127067049
 40
0.8453788286
 40
0.8616678903
 40
0.8779438918
 40
0.8942307539
 40
0.9105650665
 40
0.9270031347
 40
0.9352879629
 40
0.9436312277
 40
0.9520368565
 40
0.9604667959
 40
0.968699652
 40
0.9725708248
 40
0.9761312499
 40
0.9793933998
 40
0.9824401403
 40
0.9853681327
 40
0.9882595741
 40
0.9940645113
 40
1.0
 40
1.0
 40
1.0
 40
1.0
 10
17.2800183925
 20
11.8564236
 30
0.0
 10
17.2713080207
 20
11.8759629473
 30
0.0
 10
17.2549785036
 20
11.9171460817
 30
0.0
 10
17.2342716209
 20
11.9824462238
 30
0.0
 10
17.2167193462
 20
12.0528127885
 30
0.0
 10
17.2025313238
 20
12.1275860702
 30
0.0
 10
17.1919072375
 20
12.2060716845
 30
0.0
 10
17.1850297232
 20
12.2875332585
 30
0.0
 10
17.1820697492
 20
12.3712116767
 30
0.0
 10
17.1831890382
 20
12.456328267
 30
0.0
 10
17.1876498426
 20
12.5277392569
 30
0.0
 10
17.1934355386
 20
12.5849287789
 30
0.0
 10
17.1989137615
 20
12.6277276916
 30
0.0
 10
17.2055556943
 20
12.6702903472
 30
0.0
 10
17.2133976186
 20
12.7125185626
 30
0.0
 10
17.2224856998
 20
12.7543143427
 30
0.0
 10
17.2328820023
 20
12.7955798571
 30
0.0
 10
17.2446738822
 20
12.8362169014
 30
0.0
 10
17.257991368
 20
12.8761226408
 30
0.0
 10
17.2705428258
 20
12.9087109533
 30
0.0
 10
17.2816159578
 20
12.9342509655
 30
0.0
 10
17.2905056856
 20
12.9531071579
 30
0.0
 10
17.300089414
 20
12.9716440916
 30
0.0
 10
17.3105250752
 20
12.9897969757
 30
0.0
 10
17.3201190452
 20
13.0044720473
 30
0.0
 10
17.3285573182
 20
13.0157842329
 30
0.0
 10
17.3353936473
 20
13.023997821
 30
0.0
 10
17.3428500562
 20
13.0317530204
 30
0.0
 10
17.3510420378
 20
13.0386558024
 30
0.0
 10
17.3586839595
 20
13.0431467465
 30
0.0
 10
17.3651251507
 20
13.0450609226
 30
0.0
 10
17.3697139746
 20
13.0454458264
 30
0.0
 10
17.3739079734
 20
13.0447328762
 30
0.0
 10
17.3775643407
 20
13.0431750408
 30
0.0
 10
17.3806677013
 20
13.0409726401
 30
0.0
 10
17.3842100069
 20
13.0374793459
 30
0.0
 10
17.3877906486
 20
13.0323086116
 30
0.0
 10
17.3899946975
 20
13.0277991288
 30
0.0
 10
17.3909953025
 20
13.0254728115
 30
0.0
  0
SPLINE
  5
38F
100
AcDbEntity
  8
02___PRT_ALL_AXES
100
AcDbSpline
 62
7
  6
BYLAYER
 70
0
 71
3
 72
17
 73
13
 74
0
 42
0.0000001
 43
0.0000001
 44
0.0000000001
 40
0.0
 40
0.0
 40
0.0
 40
0.0
 40
0.0328478074
 40
0.0676279268
 40
0.1059114104
 40
0.148752321
 40
0.2498936423
 40
0.3721854089
 40
0.5131913382
 40
0.6685235917
 40
0.8329156281
 40
1.0
 40
1.0
 40
1.0
 40
1.0
 10
18.3814108498
 20
12.9866203575
 30
0.0
 10
18.382148634
 20
12.9866211463
 30
0.0
 10
18.3836741202
 20
12.9868360749
 30
0.0
 10
18.3858862752
 20
12.9877677141
 30
0.0
 10
18.3880238032
 20
12.989283126
 30
0.0
 10
18.3909117621
 20
12.9922069927
 30
0.0
 10
18.3941523908
 20
12.997302706
 30
0.0
 10
18.3972939489
 20
13.0048856896
 30
0.0
 10
18.3997703493
 20
13.0139786773
 30
0.0
 10
18.4014739799
 20
13.0242003716
 30
0.0
 10
18.402323373
 20
13.0351137186
 30
0.0
 10
18.40229793
 20
13.0425685581
 30
0.0
 10
18.4021298801
 20
13.0463176246
 30
0.0
  0
SPLINE
  5
390
100
AcDbEntity
  8
0
100
AcDbSpline
 62
7
  6
BYLAYER
 70
0
 71
3
 72
29
 73
25
 74
0
 42
0.0000001
 43
0.0000001
 44
0.0000000001
 40
0.0
 40
0.0
 40
0.0
 40
0.0
 40
0.0126081339
 40
0.0257622284
 40
0.0393672543
 40
0.0533557758
 40
0.0823008432
 40
0.112333252
 40
0.1432763082
 40
0.1749958692
 40
0.2073800824
 40
0.2403297157
 40
0.307563884
 40
0.3760174845
 40
0.445052033
 40
0.5140576877
 40
0.5824464442
 40
0.649652086
 40
0.7151328763
 40
0.7783759206
 40
0.8388992425
 40
0.8962606029
 40
0.9500827803
 40
1.0
 40
1.0
 40
1.0
 40
1.0
 10
17.3909953025
 20
13.0254728115
 30
0.0
 10
17.3931043022
 20
13.0205695757
 30
0.0
 10
17.3964271474
 20
13.0101330312
 30
0.0
 10
17.3999429948
 20
12.9938365354
 30
0.0
 10
17.4026177626
 20
12.9767870099
 30
0.0
 10
17.4054623506
 20
12.9530188376
 30
0.0
 10
17.4080235206
 20
12.922227878
 30
0.0
 10
17.4103386682
 20
12.8842308722
 30
0.0
 10
17.4123153989
 20
12.8450383811
 30
0.0
 10
17.4142059893
 20
12.8048455205
 30
0.0
 10
17.4161748392
 20
12.7638057566
 30
0.0
 10
17.4190793397
 20
12.7077591365
 30
0.0
 10
17.4234185305
 20
12.6364969547
 30
0.0
 10
17.4301882121
 20
12.5500886372
 30
0.0
 10
17.4388239311
 20
12.4630913418
 30
0.0
 10
17.4494897796
 20
12.3763455203
 30
0.0
 10
17.4622722604
 20
12.2906673219
 30
0.0
 10
17.4771987817
 20
12.2068499984
 30
0.0
 10
17.4942472625
 20
12.1256609846
 30
0.0
 10
17.5133531668
 20
12.0478386652
 30
0.0
 10
17.5344119482
 20
11.9740874702
 30
0.0
 10
17.5572881477
 20
11.9050639045
 30
0.0
 10
17.5818111622
 20
11.8413957105
 30
0.0
 10
17.599830745
 20
11.8013107163
 30
0.0
 10
17.6091403398
 20
11.7823397568
 30
0.0
  0
SPLINE
  5
391
100
AcDbEntity
  8
0
100
AcDbSpline
 62
7
  6
BYLAYER
 70
0
 71
3
 72
13
 73
9
 74
0
 42
0.0000001
 43
0.0000001
 44
0.0000000001
 40
0.0
 40
0.0
 40
0.0
 40
0.0
 40
0.2875978843
 40
0.5446946651
 40
0.664072338
 40
0.7787741667
 40
0.8902237048
 40
1.0
 40
1.0
 40
1.0
 40
1.0
 10
16.8250620126
 20
13.2912401517
 30
0.0
 10
16.8151905851
 20
13.3025744454
 30
0.0
 10
16.7950593559
 20
13.3228733486
 30
0.0
 10
16.7665084274
 20
13.3430349132
 30
0.0
 10
16.7433274532
 20
13.3541829456
 30
0.0
 10
16.7261943136
 20
13.3600350284
 30
0.0
 10
16.7089472368
 20
13.3635606306
 30
0.0
 10
16.697370594
 20
13.3643463556
 30
0.0
 10
16.6916335016
 20
13.3643450883
 30
0.0
  0
SPLINE
  5
392
100
AcDbEntity
  8
0
100
AcDbSpline
 62
7
  6
BYLAYER
 70
0
 71
3
 72
9
 73
5
 74
0
 42
0.0000001
 43
0.0000001
 44
0.0000000001
 40
0.0
 40
0.0
 40
0.0
 40
0.0
 40
0.2357826308
 40
1.0
 40
1.0
 40
1.0
 40
1.0
 10
16.541714228
 20
11.6031376355
 30
0.0
 10
16.5408564185
 20
11.603610109
 30
0.0
 10
16.5370678547
 20
11.605340826
 30
0.0
 10
16.5328342214
 20
11.6059774427
 30
0.0
 10
16.5296600537
 20
11.6059774427
 30
0.0
  0
SPLINE
  5
393
100
AcDbEntity
  8
0
100
AcDbSpline
 62
7
  6
BYLAYER
 70
0
 71
3
 72
11
 73
7
 74
0
 42
0.0000001
 43
0.0000001
 44
0.0000000001
 40
0.0
 40
0.0
 40
0.0
 40
0.0
 40
0.2268630568
 40
0.4649901318
 40
0.7222804645
 40
1.0
 40
1.0
 40
1.0
 40
1.0
 10
16.4883331903
 20
11.5873449386
 30
0.0
 10
16.4890861273
 20
11.5858167306
 30
0.0
 10
16.4911848029
 20
11.5829300987
 30
0.0
 10
16.4956778861
 20
11.5797496825
 30
0.0
 10
16.5012200475
 20
11.5778189239
 30
0.0
 10
16.5052549697
 20
11.5774167525
 30
0.0
 10
16.5073404992
 20
11.5774167525
 30
0.0
  0
SPLINE
  5
394
100
AcDbEntity
  8
0
100
AcDbSpline
 62
7
  6
BYLAYER
 70
0
 71
3
 72
11
 73
7
 74
0
 42
0.0000001
 43
0.0000001
 44
0.0000000001
 40
0.0
 40
0.0
 40
0.0
 40
0.0
 40
0.2781042032
 40
0.5372958682
 40
0.777247176
 40
1.0
 40
1.0
 40
1.0
 40
1.0
 10
14.4881986819
 20
12.9843284013
 30
0.0
 10
14.4952988649
 20
13.0073046017
 30
0.0
 10
14.510515724
 20
13.0512547701
 30
0.0
 10
14.5375861286
 20
13.112868879
 30
0.0
 10
14.5682182804
 20
13.1673847666
 30
0.0
 10
14.5919801689
 20
13.1997641509
 30
0.0
 10
14.6045696397
 20
13.2143424254
 30
0.0
  0
SPLINE
  5
395
100
AcDbEntity
  8
0
100
AcDbSpline
 62
7
  6
BYLAYER
 70
0
 71
3
 72
23
 73
19
 74
0
 42
0.0000001
 43
0.0000001
 44
0.0000000001
 40
0.0
 40
0.0
 40
0.0
 40
0.0
 40
0.0456682055
 40
0.0946461766
 40
0.1472849351
 40
0.203648069
 40
0.2635680709
 40
0.3266971597
 40
0.3925543392
 40
0.4605614164
 40
0.5300697041
 40
0.6003839882
 40
0.6707854918
 40
0.7405549268
 40
0.8089894332
 40
0.8754179673
 40
0.9392747154
 40
1.0
 40
1.0
 40
1.0
 40
1.0
 10
14.6043874835
 20
11.835984755
 30
0.0
 10
14.5925619651
 20
11.8496957243
 30
0.0
 10
14.5701679388
 20
11.8799650833
 30
0.0
 10
14.5410317844
 20
11.9306786752
 30
0.0
 10
14.5150483829
 20
11.9877568815
 30
0.0
 10
14.4921509272
 20
12.0507549134
 30
0.0
 10
14.4723988491
 20
12.1191386453
 30
0.0
 10
14.4559072121
 20
12.1922366112
 30
0.0
 10
14.4428064874
 20
12.2692670062
 30
0.0
 10
14.4332193149
 20
12.3493574975
 30
0.0
 10
14.4272443709
 20
12.4315679769
 30
0.0
 10
14.4249454166
 20
12.5149118756
 30
0.0
 10
14.426346584
 20
12.5983791085
 30
0.0
 10
14.4314331449
 20
12.6809572443
 30
0.0
 10
14.4401517325
 20
12.7616485106
 30
0.0
 10
14.4524080294
 20
12.8395106167
 30
0.0
 10
14.4680911033
 20
12.9136350268
 30
0.0
 10
14.4810903392
 20
12.9613257957
 30
0.0
 10
14.4881986819
 20
12.9843284013
 30
0.0
  0
SPLINE
  5
396
100
AcDbEntity
  8
0
100
AcDbSpline
 62
7
  6
BYLAYER
 70
0
 71
3
 72
11
 73
7
 74
0
 42
0.0000001
 43
0.0000001
 44
0.0000000001
 40
0.0
 40
0.0
 40
0.0
 40
0.0
 40
0.2838886043
 40
0.5402472132
 40
0.7758001849
 40
1.0
 40
1.0
 40
1.0
 40
1.0
 10
17.009911325
 20
13.2044710955
 30
0.0
 10
17.0017737762
 20
13.2130441693
 30
0.0
 10
16.9851931151
 20
13.2283928321
 30
0.0
 10
16.957957557
 20
13.2461073696
 30
0.0
 10
16.9299294353
 20
13.2569651286
 30
0.0
 10
16.91071076
 20
13.2594319618
 30
0.0
 10
16.9013758021
 20
13.2594341953
 30
0.0
  0
SPLINE
  5
397
100
AcDbEntity
  8
0
100
AcDbSpline
 62
7
  6
BYLAYER
 70
0
 71
3
 72
11
 73
7
 74
0
 42
0.0000001
 43
0.0000001
 44
0.0000000001
 40
0.0
 40
0.0
 40
0.0
 40
0.0
 40
0.2255929393
 40
0.4618629402
 40
0.7178359597
 40
1.0
 40
1.0
 40
1.0
 40
1.0
 10
16.9013404306
 20
11.7906854434
 30
0.0
 10
16.9103536498
 20
11.7906832735
 30
0.0
 10
16.9288761139
 20
11.7929732861
 30
0.0
 10
16.9559540967
 20
11.8030712401
 30
0.0
 10
16.9823182914
 20
11.8195948252
 30
0.0
 10
16.998446234
 20
11.8339546566
 30
0.0
 10
17.0063633196
 20
11.8419802407
 30
0.0
  0
SPLINE
  5
398
100
AcDbEntity
  8
0
100
AcDbSpline
 62
7
  6
BYLAYER
 70
0
 71
3
 72
10
 73
6
 74
0
 42
0.0000001
 43
0.0000001
 44
0.0000000001
 40
0.0
 40
0.0
 40
0.0
 40
0.0
 40
0.525296295
 40
0.7677625957
 40
1.0
 40
1.0
 40
1.0
 40
1.0
 10
16.8749015775
 20
11.7903965062
 30
0.0
 10
16.8648850669
 20
11.7816100344
 30
0.0
 10
16.8490658564
 20
11.7699382031
 30
0.0
 10
16.8263081316
 20
11.7586295889
 30
0.0
 10
16.814899711
 20
11.754649075
 30
0.0
 10
16.8092179671
 20
11.7530940432
 30
0.0
  0
SPLINE
  5
399
100
AcDbEntity
  8
0
100
AcDbSpline
 62
7
  6
BYLAYER
 70
0
 71
3
 72
9
 73
5
 74
0
 42
0.0000001
 43
0.0000001
 44
0.0000000001
 40
0.0
 40
0.0
 40
0.0
 40
0.0
 40
0.5038615203
 40
1.0
 40
1.0
 40
1.0
 40
1.0
 10
16.8092179671
 20
11.7530940432
 30
0.0
 10
16.803967901
 20
11.751657157
 30
0.0
 10
16.7933544254
 20
11.7494633655
 30
0.0
 10
16.7825390224
 20
11.7487204111
 30
0.0
 10
16.7771793076
 20
11.7487207654
 30
0.0
  0
SPLINE
  5
39A
100
AcDbEntity
  8
0
100
AcDbSpline
 62
7
  6
BYLAYER
 70
0
 71
3
 72
11
 73
7
 74
0
 42
0.0000001
 43
0.0000001
 44
0.0000000001
 40
0.0
 40
0.0
 40
0.0
 40
0.0
 40
0.2304318828
 40
0.4692700925
 40
0.7238810361
 40
1.0
 40
1.0
 40
1.0
 40
1.0
 10
16.7771793076
 20
13.3013983755
 30
0.0
 10
16.7854894526
 20
13.3013977322
 30
0.0
 10
16.8024629569
 20
13.2995762039
 30
0.0
 10
16.827451509
 20
13.2914860913
 30
0.0
 10
16.851960047
 20
13.2781818758
 30
0.0
 10
16.8671935106
 20
13.2664669727
 30
0.0
 10
16.8746872585
 20
13.2599094574
 30
0.0
  0
SPLINE
  5
39B
100
AcDbEntity
  8
0
100
AcDbSpline
 62
7
  6
BYLAYER
 70
0
 71
3
 72
12
 73
8
 74
0
 42
0.0000001
 43
0.0000001
 44
0.0000000001
 40
0.0
 40
0.0
 40
0.0
 40
0.0
 40
0.1118792177
 40
0.2251696126
 40
0.460951143
 40
0.7170969525
 40
1.0
 40
1.0
 40
1.0
 40
1.0
 10
16.6916503261
 20
11.6857758643
 30
0.0
 10
16.6968745985
 20
11.6857757821
 30
0.0
 10
16.7074009492
 20
11.6864263612
 30
0.0
 10
16.7286072395
 20
11.6903638691
 30
0.0
 10
16.7552704598
 20
11.700490699
 30
0.0
 10
16.7859119637
 20
11.7200953322
 30
0.0
 10
16.8046259184
 20
11.7370982595
 30
0.0
 10
16.8138061526
 20
11.7465975437
 30
0.0
  0
SPLINE
  5
39C
100
AcDbEntity
  8
0
100
AcDbSpline
 62
7
  6
BYLAYER
 70
0
 71
3
 72
29
 73
25
 74
0
 42
0.0000001
 43
0.0000001
 44
0.0000000001
 40
0.0
 40
0.0
 40
0.0
 40
0.0
 40
0.0154465238
 40
0.0312878109
 40
0.0478831244
 40
0.0655336972
 40
0.0844721887
 40
0.1048653272
 40
0.1268238496
 40
0.1504078726
 40
0.1756416959
 40
0.2025136691
 40
0.2309895136
 40
0.2610101848
 40
0.3253550436
 40
0.3947830075
 40
0.4683304645
 40
0.5449036105
 40
0.6233200434
 40
0.7023457296
 40
0.7807298591
 40
0.8572391365
 40
0.93069285
 40
1.0
 40
1.0
 40
1.0
 40
1.0
 10
14.7912054401
 20
11.6857758643
 30
0.0
 10
14.7837336756
 20
11.6857759819
 30
0.0
 10
14.7685669384
 20
11.6871221692
 30
0.0
 10
14.7460945856
 20
11.6931411112
 30
0.0
 10
14.7239004478
 20
11.7030900928
 30
0.0
 10
14.7020982408
 20
11.7168891889
 30
0.0
 10
14.6807700521
 20
11.7344454253
 30
0.0
 10
14.659995843
 20
11.7556652638
 30
0.0
 10
14.6398599646
 20
11.7804499225
 30
0.0
 10
14.6204391652
 20
11.8086824583
 30
0.0
 10
14.6018235456
 20
11.8402391098
 30
0.0
 10
14.5840881919
 20
11.8749731653
 30
0.0
 10
14.5673189531
 20
11.9127292482
 30
0.0
 10
14.5458490899
 20
11.9681560294
 30
0.0
 10
14.5221983607
 20
12.0438739045
 30
0.0
 10
14.4993497388
 20
12.1415955595
 30
0.0
 10
14.4818446358
 20
12.2464105709
 30
0.0
 10
14.470013161
 20
12.3563814403
 30
0.0
 10
14.4640801676
 20
12.4694779537
 30
0.0
 10
14.4641584078
 20
12.5836047377
 30
0.0
 10
14.4702463586
 20
12.6966460083
 30
0.0
 10
14.4822290025
 20
12.8065101434
 30
0.0
 10
14.4998768541
 20
12.9111581465
 30
0.0
 10
14.5157323726
 20
12.9784371132
 30
0.0
 10
14.5246612182
 20
13.0107513513
 30
0.0
  0
SPLINE
  5
39D
100
AcDbEntity
  8
0
100
AcDbSpline
 62
7
  6
BYLAYER
 70
0
 71
3
 72
19
 73
15
 74
0
 42
0.0000001
 43
0.0000001
 44
0.0000000001
 40
0.0
 40
0.0
 40
0.0
 40
0.0
 40
0.1739428952
 40
0.2559101136
 40
0.3343017078
 40
0.479817055
 40
0.6099092228
 40
0.7247712248
 40
0.7769127155
 40
0.8258682887
 40
0.8720585334
 40
0.9160226917
 40
0.9584173532
 40
1.0
 40
1.0
 40
1.0
 40
1.0
 10
14.5246612182
 20
13.0107513513
 30
0.0
 10
14.5319121165
 20
13.0369929577
 30
0.0
 10
14.5437836577
 20
13.0752924356
 30
0.0
 10
14.5621032454
 20
13.124317326
 30
0.0
 10
14.5806859691
 20
13.1684482762
 30
0.0
 10
14.605503468
 20
13.2180940251
 30
0.0
 10
14.6386823643
 20
13.2695791611
 30
0.0
 10
14.6691590404
 20
13.3049967379
 30
0.0
 10
14.6945803747
 20
13.3273496423
 30
0.0
 10
14.7134078909
 20
13.3407331945
 30
0.0
 10
14.7325487255
 20
13.3512249717
 30
0.0
 10
14.7519434306
 20
13.3587733104
 30
0.0
 10
14.7715153741
 20
13.3633234558
 30
0.0
 10
14.7846802435
 20
13.3643436505
 30
0.0
 10
14.7911886156
 20
13.3643450883
 30
0.0
  0
SPLINE
  5
39E
100
AcDbEntity
  8
0
100
AcDbSpline
 62
7
  6
BYLAYER
 70
0
 71
3
 72
13
 73
9
 74
0
 42
0.0000001
 43
0.0000001
 44
0.0000000001
 40
0.0
 40
0.0
 40
0.0
 40
0.0
 40
0.2565793543
 40
0.3900097224
 40
0.5228713246
 40
0.6524276705
 40
0.7762391507
 40
1.0
 40
1.0
 40
1.0
 40
1.0
 10
16.5296600537
 20
11.6059774427
 30
0.0
 10
16.5257167236
 20
11.6059774427
 30
0.0
 10
16.5196829993
 20
11.6048553604
 30
0.0
 10
16.5122974289
 20
11.6016466686
 30
0.0
 10
16.5071275846
 20
11.598391604
 30
0.0
 10
16.5026368852
 20
11.5944628788
 30
0.0
 10
16.4979918252
 20
11.5887736932
 30
0.0
 10
16.4957627982
 20
11.5836812931
 30
0.0
 10
16.4952397456
 20
11.5802823558
 30
0.0
  0
SPLINE
  5
39F
100
AcDbEntity
  8
0
100
AcDbSpline
 62
7
  6
BYLAYER
 70
0
 71
3
 72
14
 73
10
 74
0
 42
0.0000001
 43
0.0000001
 44
0.0000000001
 40
0.0
 40
0.0
 40
0.0
 40
0.0
 40
0.269993807
 40
0.4094466673
 40
0.5451394958
 40
0.6729569133
 40
0.7905704427
 40
0.8983629651
 40
1.0
 40
1.0
 40
1.0
 40
1.0
 10
16.5073404992
 20
11.5774167525
 30
0.0
 10
16.5123892426
 20
11.5774167525
 30
0.0
 10
16.5201206574
 20
11.5792451695
 30
0.0
 10
16.5290253985
 20
11.5842742759
 30
0.0
 10
16.5347851558
 20
11.5892226018
 30
0.0
 10
16.5391081398
 20
11.5949659423
 30
0.0
 10
16.5416849826
 20
11.6011382655
 30
0.0
 10
16.5422773755
 20
11.6073317821
 30
0.0
 10
16.54122763
 20
11.611216661
 30
0.0
 10
16.5403876548
 20
11.6129215271
 30
0.0
  0
SPLINE
  5
3A0
100
AcDbEntity
  8
0
100
AcDbSpline
 62
7
  6
BYLAYER
 70
0
 71
3
 72
10
 73
6
 74
0
 42
0.0000001
 43
0.0000001
 44
0.0000000001
 40
0.0
 40
0.0
 40
0.0
 40
0.0
 40
0.4971344496
 40
0.7531684481
 40
1.0
 40
1.0
 40
1.0
 40
1.0
 10
15.8500817524
 20
12.0226163096
 30
0.0
 10
15.8567412638
 20
12.0226163096
 30
0.0
 10
15.8669341058
 20
12.0198653134
 30
0.0
 10
15.8782691525
 20
12.0126591057
 30
0.0
 10
15.8831573396
 20
12.0079249502
 30
0.0
 10
15.8852526804
 20
12.0053671147
 30
0.0
  0
LINE
  5
3A1
100
AcDbEntity
  8
0
100
AcDbLine
 62
7
  6
BYLAYER
 10
15.8852526804
 20
12.0053671147
 11
15.8880264245
 21
12.0015566675
  0
SPLINE
  5
3A2
100
AcDbEntity
  8
0
100
AcDbSpline
 62
7
  6
BYLAYER
 70
0
 71
3
 72
39
 73
35
 74
0
 42
0.0000001
 43
0.0000001
 44
0.0000000001
 40
0.0
 40
0.0
 40
0.0
 40
0.0
 40
0.0083666182
 40
0.0168447085
 40
0.0345225039
 40
0.0537845426
 40
0.0751390961
 40
0.0988909303
 40
0.1251832996
 40
0.1540382929
 40
0.1853841694
 40
0.219081155
 40
0.2549349067
 40
0.2927070073
 40
0.3321265198
 40
0.3728943909
 40
0.4146909768
 40
0.500006473
 40
0.5853215758
 40
0.6271178288
 40
0.6678851794
 40
0.707303634
 40
0.7450752185
 40
0.7809276993
 40
0.8146234152
 40
0.8459685575
 40
0.8748216879
 40
0.9011129762
 40
0.9248638472
 40
0.9462167076
 40
0.9654781103
 40
0.9831552707
 40
0.9916333273
 40
1.0
 40
1.0
 40
1.0
 40
1.0
 10
16.6916335016
 20
13.3643450883
 30
0.0
 10
16.6862772936
 20
13.364343905
 30
0.0
 10
16.6754810541
 20
13.3636556789
 30
0.0
 10
16.6537235666
 20
13.3595098425
 30
0.0
 10
16.6263780237
 20
13.3488398735
 30
0.0
 10
16.5950100698
 20
13.3282326167
 30
0.0
 10
16.5647811277
 20
13.299990528
 30
0.0
 10
16.5358893505
 20
13.2644244182
 30
0.0
 10
16.5085348848
 20
13.221861858
 30
0.0
 10
16.4829480821
 20
13.1726841032
 30
0.0
 10
16.4593516363
 20
13.1173423391
 30
0.0
 10
16.4379667974
 20
13.0563492846
 30
0.0
 10
16.4189979519
 20
12.990277841
 30
0.0
 10
16.4026237548
 20
12.9197545572
 30
0.0
 10
16.3890057044
 20
12.8454506133
 30
0.0
 10
16.3782740559
 20
12.7680747774
 30
0.0
 10
16.3678851572
 20
12.6610782786
 30
0.0
 10
16.3627604808
 20
12.5250391391
 30
0.0
 10
16.367888639
 20
12.3890004083
 30
0.0
 10
16.3782784007
 20
12.282004802
 30
0.0
 10
16.389011554
 20
12.2046303764
 30
0.0
 10
16.4026322445
 20
12.1303283089
 30
0.0
 10
16.4190060768
 20
12.0598068091
 30
0.0
 10
16.4379773222
 20
11.9937380389
 30
0.0
 10
16.4593637051
 20
11.9327478246
 30
0.0
 10
16.4829593966
 20
11.877408365
 30
0.0
 10
16.5085492891
 20
11.8282348128
 30
0.0
 10
16.5359037418
 20
11.7856754258
 30
0.0
 10
16.5647950845
 20
11.7501116596
 30
0.0
 10
16.5950270343
 20
11.7218761734
 30
0.0
 10
16.6263934984
 20
11.7012699161
 30
0.0
 10
16.6537401127
 20
11.6906049851
 30
0.0
 10
16.6754975493
 20
11.6864605531
 30
0.0
 10
16.686294083
 20
11.6857759486
 30
0.0
 10
16.6916503261
 20
11.6857758643
 30
0.0
  0
SPLINE
  5
3A3
100
AcDbEntity
  8
0
100
AcDbSpline
 62
7
  6
BYLAYER
 70
0
 71
3
 72
37
 73
33
 74
0
 42
0.0000001
 43
0.0000001
 44
0.0000000001
 40
0.0
 40
0.0
 40
0.0
 40
0.0
 40
0.0083667926
 40
0.0168450065
 40
0.0345218288
 40
0.0537830842
 40
0.0751356451
 40
0.0988855569
 40
0.1251769365
 40
0.1540297768
 40
0.1853748006
 40
0.2190711608
 40
0.2549238999
 40
0.2926964239
 40
0.3321160339
 40
0.4146648628
 40
0.4999834863
 40
0.5853030434
 40
0.6678542916
 40
0.707276092
 40
0.7450503171
 40
0.780906153
 40
0.8146052177
 40
0.8459529471
 40
0.8748097329
 40
0.9011036666
 40
0.9248569506
 40
0.9462127073
 40
0.9654757844
 40
0.9831545262
 40
0.9916330006
 40
1.0
 40
1.0
 40
1.0
 40
1.0
 10
16.9013758021
 20
13.2594341953
 30
0.0
 10
16.8966891364
 20
13.2594353167
 30
0.0
 10
16.8872420633
 20
13.2588373216
 30
0.0
 10
16.8682048735
 20
13.2552113759
 30
0.0
 10
16.8442747197
 20
13.2458870742
 30
0.0
 10
16.8168283262
 20
13.2278590799
 30
0.0
 10
16.7903750159
 20
13.2031561863
 30
0.0
 10
16.7650920202
 20
13.1720423761
 30
0.0
 10
16.7411570797
 20
13.1348047257
 30
0.0
 10
16.7187640472
 20
13.0917804608
 30
0.0
 10
16.6981157528
 20
13.043360502
 30
0.0
 10
16.6794023484
 20
12.9899951277
 30
0.0
 10
16.6628002154
 20
12.9321862484
 30
0.0
 10
16.6484711752
 20
12.8704799333
 30
0.0
 10
16.632334877
 20
12.7824407223
 30
0.0
 10
16.6189336351
 20
12.6669590032
 30
0.0
 10
16.6135746191
 20
12.5251047577
 30
0.0
 10
16.618925974
 20
12.3832487625
 30
0.0
 10
16.6323232446
 20
12.2677635482
 30
0.0
 10
16.6484536772
 20
12.1797196363
 30
0.0
 10
16.6627818645
 20
12.1180091253
 30
0.0
 10
16.6793792098
 20
12.0601945381
 30
0.0
 10
16.6980907573
 20
12.0068233817
 30
0.0
 10
16.7187378772
 20
11.9583973563
 30
0.0
 10
16.7411263237
 20
11.9153648492
 30
0.0
 10
16.7650618949
 20
11.8781209534
 30
0.0
 10
16.7903423934
 20
11.8469989799
 30
0.0
 10
16.8167932378
 20
11.8222859183
 30
0.0
 10
16.8442407194
 20
11.8042536506
 30
0.0
 10
16.868168412
 20
11.7949162403
 30
0.0
 10
16.887206747
 20
11.7912886524
 30
0.0
 10
16.896653649
 20
11.7906865718
 30
0.0
 10
16.9013404306
 20
11.7906854434
 30
0.0
  0
SPLINE
  5
3A4
100
AcDbEntity
  8
0
100
AcDbSpline
 62
7
  6
BYLAYER
 70
0
 71
3
 72
11
 73
7
 74
0
 42
0.0000001
 43
0.0000001
 44
0.0000000001
 40
0.0
 40
0.0
 40
0.0
 40
0.0
 40
0.2930274129
 40
0.551096739
 40
0.7821450612
 40
1.0
 40
1.0
 40
1.0
 40
1.0
 10
16.0007329847
 20
11.7716760766
 30
0.0
 10
16.0012254789
 20
11.7710551604
 30
0.0
 10
16.0020734764
 20
11.7698199126
 30
0.0
 10
16.0029281592
 20
11.7678672818
 30
0.0
 10
16.0032474769
 20
11.7659579138
 30
0.0
 10
16.003073166
 20
11.7647325523
 30
0.0
 10
16.0028991949
 20
11.7641696126
 30
0.0
  0
SPLINE
  5
3A5
100
AcDbEntity
  8
0
100
AcDbSpline
 62
7
  6
BYLAYER
 70
0
 71
3
 72
37
 73
33
 74
0
 42
0.0000001
 43
0.0000001
 44
0.0000000001
 40
0.0
 40
0.0
 40
0.0
 40
0.0
 40
0.0083669276
 40
0.0168451927
 40
0.0345231412
 40
0.0537850373
 40
0.0751393607
 40
0.0988910732
 40
0.1251833878
 40
0.1540385722
 40
0.1853847681
 40
0.2190824073
 40
0.2549369546
 40
0.2927100535
 40
0.3321309099
 40
0.4146808688
 40
0.4999999878
 40
0.5853190491
 40
0.6678691685
 40
0.7072897223
 40
0.7450633702
 40
0.7809173948
 40
0.8146151795
 40
0.8459617339
 40
0.8748161754
 40
0.9011091753
 40
0.9248606589
 40
0.9462146567
 40
0.9654770955
 40
0.9831547122
 40
0.9916331359
 40
1.0
 40
1.0
 40
1.0
 40
1.0
 10
16.8158309743
 20
11.7906854406
 30
0.0
 10
16.8111442331
 20
11.7906858268
 30
0.0
 10
16.8016973928
 20
11.7912863988
 30
0.0
 10
16.7826590872
 20
11.794910929
 30
0.0
 10
16.7587311689
 20
11.8042444747
 30
0.0
 10
16.731283107
 20
11.8222724524
 30
0.0
 10
16.7048315881
 20
11.846981396
 30
0.0
 10
16.6795503033
 20
11.8780994166
 30
0.0
 10
16.6556138288
 20
11.915339554
 30
0.0
 10
16.6332243509
 20
11.9583685296
 30
0.0
 10
16.6125760734
 20
12.0067912879
 30
0.0
 10
16.5938632536
 20
12.0601594779
 30
0.0
 10
16.5772645261
 20
12.1179714298
 30
0.0
 10
16.562934862
 20
12.1796796648
 30
0.0
 10
16.5468022772
 20
12.2677212661
 30
0.0
 10
16.5334022417
 20
12.3832046543
 30
0.0
 10
16.5280475257
 20
12.5250597923
 30
0.0
 10
16.5334031804
 20
12.6669148787
 30
0.0
 10
16.5468016574
 20
12.7823984104
 30
0.0
 10
16.5629357949
 20
12.8704399221
 30
0.0
 10
16.5772633554
 20
12.932148503
 30
0.0
 10
16.5938641017
 20
12.9899600079
 30
0.0
 10
16.6125762223
 20
13.0433283413
 30
0.0
 10
16.6332233548
 20
13.0917515599
 30
0.0
 10
16.6556153449
 20
13.1347793543
 30
0.0
 10
16.6795493694
 20
13.1720207663
 30
0.0
 10
16.7048315735
 20
13.203138531
 30
0.0
 10
16.7312841942
 20
13.2278455582
 30
0.0
 10
16.758729999
 20
13.2458778551
 30
0.0
 10
16.782659921
 20
13.2552060376
 30
0.0
 10
16.8016971354
 20
13.2588350555
 30
0.0
 10
16.8111442687
 20
13.2594345733
 30
0.0
 10
16.8158309743
 20
13.2594341981
 30
0.0
  0
SPLINE
  5
3A6
100
AcDbEntity
  8
0
100
AcDbSpline
 62
7
  6
BYLAYER
 70
0
 71
3
 72
11
 73
7
 74
0
 42
0.0000001
 43
0.0000001
 44
0.0000000001
 40
0.0
 40
0.0
 40
0.0
 40
0.0
 40
0.2268630568
 40
0.4649901318
 40
0.7222804645
 40
1.0
 40
1.0
 40
1.0
 40
1.0
 10
16.5403876548
 20
11.6129215271
 30
0.0
 10
16.5396347178
 20
11.6144497351
 30
0.0
 10
16.5375360422
 20
11.617336367
 30
0.0
 10
16.533042959
 20
11.6205167832
 30
0.0
 10
16.5275007976
 20
11.6224475418
 30
0.0
 10
16.5234658754
 20
11.6228497132
 30
0.0
 10
16.5213803459
 20
11.6228497132
 30
0.0
  0
SPLINE
  5
3A7
100
AcDbEntity
  8
0
100
AcDbSpline
 62
7
  6
BYLAYER
 70
0
 71
3
 72
11
 73
7
 74
0
 42
0.0000001
 43
0.0000001
 44
0.0000000001
 40
0.0
 40
0.0
 40
0.0
 40
0.0
 40
0.2836301226
 40
0.5455715303
 40
0.7845319147
 40
1.0
 40
1.0
 40
1.0
 40
1.0
 10
15.8924623229
 20
11.9915742117
 30
0.0
 10
15.8995719196
 20
11.9694014066
 30
0.0
 10
15.9145400511
 20
11.9271468287
 30
0.0
 10
15.9404015813
 20
11.8680881672
 30
0.0
 10
15.9685460518
 20
11.8163612102
 30
0.0
 10
15.989740566
 20
11.7855348609
 30
0.0
 10
16.0007329847
 20
11.7716760766
 30
0.0
  0
SPLINE
  5
3A8
100
AcDbEntity
  8
0
100
AcDbSpline
 62
7
  6
BYLAYER
 70
0
 71
3
 72
37
 73
33
 74
0
 42
0.0000001
 43
0.0000001
 44
0.0000000001
 40
0.0
 40
0.0
 40
0.0
 40
0.0
 40
0.0083670124
 40
0.0168454632
 40
0.0345241061
 40
0.0537871416
 40
0.0751429297
 40
0.0988960703
 40
0.125190029
 40
0.1540467495
 40
0.1853943757
 40
0.219093478
 40
0.2549492218
 40
0.2927234172
 40
0.3321452171
 40
0.4146964284
 40
0.5000159726
 40
0.5853346114
 40
0.6678834763
 40
0.7073031242
 40
0.7450756764
 40
0.7809284603
 40
0.8146248601
 40
0.8459699392
 40
0.8748228313
 40
0.901114246
 40
0.9248642394
 40
0.9462168254
 40
0.9654781253
 40
0.9831549875
 40
0.9916332059
 40
1.0
 40
1.0
 40
1.0
 40
1.0
 10
16.6916339774
 20
11.748720768
 30
0.0
 10
16.6866793724
 20
11.7487218633
 30
0.0
 10
16.6766926462
 20
11.7493585621
 30
0.0
 10
16.6565665853
 20
11.7531938938
 30
0.0
 10
16.6312715933
 20
11.7630644234
 30
0.0
 10
16.6022555
 20
11.7821268137
 30
0.0
 10
16.5742935128
 20
11.8082522507
 30
0.0
 10
16.5475679979
 20
11.8411521952
 30
0.0
 10
16.5222649354
 20
11.8805243743
 30
0.0
 10
16.498597074
 20
11.9260157178
 30
0.0
 10
16.4767698875
 20
11.9772087696
 30
0.0
 10
16.4569893561
 20
12.0336296891
 30
0.0
 10
16.4394433565
 20
12.0947478361
 30
0.0
 10
16.4242963707
 20
12.1599845778
 30
0.0
 10
16.4072442627
 20
12.2530595319
 30
0.0
 10
16.3930812506
 20
12.3751438356
 30
0.0
 10
16.387423961
 20
12.5251058536
 30
0.0
 10
16.3930891195
 20
12.6750660714
 30
0.0
 10
16.407256093
 20
12.7971467924
 30
0.0
 10
16.4243143426
 20
12.8902168923
 30
0.0
 10
16.4394621704
 20
12.9554493477
 30
0.0
 10
16.4570129176
 20
13.0165616781
 30
0.0
 10
16.4767956411
 20
13.072976592
 30
0.0
 10
16.4986237759
 20
13.1241635188
 30
0.0
 10
16.522296357
 20
13.169646437
 30
0.0
 10
16.5475990516
 20
13.2090120295
 30
0.0
 10
16.5743266402
 20
13.2419040039
 30
0.0
 10
16.6022916472
 20
13.2680185324
 30
0.0
 10
16.6313063444
 20
13.2870768958
 30
0.0
 10
16.6566039178
 20
13.2969341714
 30
0.0
 10
16.6767289524
 20
13.3007674976
 30
0.0
 10
16.6867158682
 20
13.301399519
 30
0.0
 10
16.6916703439
 20
13.3013983727
 30
0.0
  0
SPLINE
  5
3A9
100
AcDbEntity
  8
0
100
AcDbSpline
 62
7
  6
BYLAYER
 70
0
 71
3
 72
37
 73
33
 74
0
 42
0.0000001
 43
0.0000001
 44
0.0000000001
 40
0.0
 40
0.0
 40
0.0
 40
0.0
 40
0.0083669438
 40
0.0168451914
 40
0.0345230621
 40
0.0537849474
 40
0.0751393399
 40
0.0988909505
 40
0.1251833344
 40
0.1540384973
 40
0.1853846326
 40
0.21908235
 40
0.2549368412
 40
0.2927099421
 40
0.3321308237
 40
0.4146807785
 40
0.4999998991
 40
0.5853189706
 40
0.6678690992
 40
0.7072896691
 40
0.7450633175
 40
0.780917354
 40
0.8146151401
 40
0.8459617074
 40
0.8748161548
 40
0.9011091421
 40
0.9248606597
 40
0.9462146381
 40
0.9654770843
 40
0.9831547154
 40
0.991633137
 40
1.0
 40
1.0
 40
1.0
 40
1.0
 10
16.7771793076
 20
11.7487207654
 30
0.0
 10
16.7722247428
 20
11.7487210928
 30
0.0
 10
16.7622380772
 20
11.7493562314
 30
0.0
 10
16.7421120406
 20
11.7531884045
 30
0.0
 10
16.716816807
 20
11.763054943
 30
0.0
 10
16.6878001058
 20
11.7821129093
 30
0.0
 10
16.659837414
 20
11.8082341032
 30
0.0
 10
16.6331110791
 20
11.8411299781
 30
0.0
 10
16.6078070791
 20
11.880498293
 30
0.0
 10
16.5841381478
 20
11.9259860077
 30
0.0
 10
16.5623097625
 20
11.9771757052
 30
0.0
 10
16.5425279174
 20
12.0335935824
 30
0.0
 10
16.5249804901
 20
12.0947090276
 30
0.0
 10
16.5098319821
 20
12.1599434373
 30
0.0
 10
16.4927776573
 20
12.2530160253
 30
0.0
 10
16.4786117987
 20
12.3750984655
 30
0.0
 10
16.4729510516
 20
12.5250596241
 30
0.0
 10
16.4786127562
 20
12.6750207349
 30
0.0
 10
16.4927768929
 20
12.7971033453
 30
0.0
 10
16.509832929
 20
12.8901758301
 30
0.0
 10
16.5249792424
 20
12.9554106275
 30
0.0
 10
16.5425285721
 20
13.0165256667
 30
0.0
 10
16.5623099846
 20
13.0729436292
 30
0.0
 10
16.5841369344
 20
13.1241339097
 30
0.0
 10
16.6078084539
 20
13.1696204546
 30
0.0
 10
16.6331102164
 20
13.2089899082
 30
0.0
 10
16.6598370013
 20
13.2418859373
 30
0.0
 10
16.6878013084
 20
13.2680047006
 30
0.0
 10
16.7168154088
 20
13.2870674686
 30
0.0
 10
16.7421127497
 20
13.2969287134
 30
0.0
 10
16.762237812
 20
13.3007651815
 30
0.0
 10
16.7722247906
 20
13.301398759
 30
0.0
 10
16.7771793076
 20
13.3013983755
 30
0.0
  0
SPLINE
  5
3AA
100
AcDbEntity
  8
0
100
AcDbSpline
 62
7
  6
BYLAYER
 70
0
 71
3
 72
11
 73
7
 74
0
 42
0.0000001
 43
0.0000001
 44
0.0000000001
 40
0.0
 40
0.0
 40
0.0
 40
0.0
 40
0.2286008525
 40
0.4657004514
 40
0.7215192159
 40
1.0
 40
1.0
 40
1.0
 40
1.0
 10
15.5625506069
 20
12.0072623766
 30
0.0
 10
15.5632427824
 20
12.0095021918
 30
0.0
 10
15.5655076658
 20
12.0138479173
 30
0.0
 10
15.5711473479
 20
12.0188595611
 30
0.0
 10
15.5785516173
 20
12.0219728103
 30
0.0
 10
15.5840656145
 20
12.0226163096
 30
0.0
 10
15.5869214684
 20
12.0226163096
 30
0.0
  0
SPLINE
  5
3AB
100
AcDbEntity
  8
0
100
AcDbSpline
 62
7
  6
BYLAYER
 70
0
 71
3
 72
14
 73
10
 74
0
 42
0.0000001
 43
0.0000001
 44
0.0000000001
 40
0.0
 40
0.0
 40
0.0
 40
0.0
 40
0.269993807
 40
0.4094466673
 40
0.5451394958
 40
0.6729569133
 40
0.7905704427
 40
0.8983629651
 40
1.0
 40
1.0
 40
1.0
 40
1.0
 10
16.5213803459
 20
11.6228497132
 30
0.0
 10
16.5163316024
 20
11.6228497132
 30
0.0
 10
16.5086001877
 20
11.6210212962
 30
0.0
 10
16.4996954466
 20
11.6159921898
 30
0.0
 10
16.4939356893
 20
11.6110438639
 30
0.0
 10
16.4896127053
 20
11.6053005235
 30
0.0
 10
16.4870358625
 20
11.5991282002
 30
0.0
 10
16.4864434696
 20
11.5929346836
 30
0.0
 10
16.4874932151
 20
11.5890498047
 30
0.0
 10
16.4883331903
 20
11.5873449386
 30
0.0
  0
ELLIPSE
  5
3AC
100
AcDbEntity
  8
0
100
AcDbEllipse
 62
7
  6
BYLAYER
 10
4.7767142857
 20
11.8722240543
 30
0.0
 11
0.0
 21
0.0509134725
 31
0.0
 40
0.7014702392
 41
0.0
 42
1.5707963268
  0
ELLIPSE
  5
3AD
100
AcDbEntity
  8
0
100
AcDbEllipse
 62
7
  6
BYLAYER
 10
5.0624285714
 20
11.8722240543
 30
0.0
 11
-0.0
 21
0.0509134725
 31
0.0
 40
0.7014702392
 41
-1.5707963268
 42
0.0
  0
ELLIPSE
  5
3AE
100
AcDbEntity
  8
0
100
AcDbEllipse
 62
7
  6
BYLAYER
 10
15.5667144916
 20
11.8997720156
 30
0.0
 11
0.0019874534
 21
0.0620733301
 31
0.0
 40
0.5294716676
 41
0.0169509104
 42
1.0928150168
  0
ELLIPSE
  5
3AF
100
AcDbEntity
  8
0
100
AcDbEllipse
 62
7
  6
BYLAYER
 10
15.8298747756
 20
11.8997720156
 30
0.0
 11
0.0019874534
 21
0.0620733301
 31
0.0
 40
0.5294716676
 41
-1.5538454164
 42
0.0169509104
  0
ELLIPSE
  5
3B0
100
AcDbEntity
  8
0
100
AcDbEllipse
 62
7
  6
BYLAYER
 10
15.8155739285
 20
11.278949525
 30
0.0
 11
0.0019874534
 21
0.0620733301
 31
0.0
 40
0.5294716676
 41
-2.0487776368
 42
-1.5538454164
  0
ENDSEC
  0
SECTION
  2
OBJECTS
  0
DICTIONARY
  5
C
100
AcDbDictionary
280
0
281
1
  3
ACAD_GROUP
350
D
  3
ACAD_MLINESTYLE
350
17
  3
ACAD_LAYOUT
350
1A
  3
ACAD_PLOTSETTINGS
350
19
  3
ACAD_PLOTSTYLENAME
350
E
  0
DICTIONARY
  5
D
102
{ACAD_REACTORS
330
C
102
}
100
AcDbDictionary
280
0
281
1
  0
ACDBDICTIONARYWDFLT
  5
E
102
{ACAD_REACTORS
330
C
102
}
100
AcDbDictionary
281
1
  3
Normal
350
F
100
AcDbDictionaryWithDefault
340
F
  0
DICTIONARY
  5
17
102
{ACAD_REACTORS
330
C
102
}
100
AcDbDictionary
280
0
281
1
  3
Standard
350
18
  0
DICTIONARY
  5
19
102
{ACAD_REACTORS
330
C
102
}
100
AcDbDictionary
281
1
  0
DICTIONARY
  5
1A
102
{ACAD_REACTORS
330
C
102
}
100
AcDbDictionary
281
1
  3
Model
350
3B1
  3
Layout1
350
3B2
  0
ACDBPLACEHOLDER
  5
F
102
{ACAD_REACTORS
330
E
102
}
  0
MLINESTYLE
  5
18
102
{ACAD_REACTORS
330
17
102
}
100
AcDbMlineStyle
  2
STANDARD
 70
0
  3

 62
256
 51
90.0
 52
90.0
 71
2
 49
0.5
 62
256
  6
BYLAYER
 49
-0.5
 62
256
  6
BYLAYER
  0
LAYOUT
  5
3B1
102
{ACAD_REACTORS
330
1A
102
}
100
AcDbPlotSettings
  1

  2
none_device
  4
ANSI_C_(22.00_x_17.00_Inches)
  6

 40
0.0
 41
0.0
 42
0.0
 43
0.0
 44
558.8
 45
431.8
 46
0.0
 47
0.0
 48
0.0
 49
0.0
140
0.0
141
0.0
142
1.0
143
1.0
 70
1024
 72
0
 73
0
 74
0
  7

 75
0
147
1.0
148
0.0
149
0.0
100
AcDbLayout
  1
Model
 70
0
 71
0
 10
0.0
 20
0.0
 11
22.0
 21
17.0
 12
0.0
 22
0.0
 32
0.0
 14
0.0
 24
0.0
 34
0.0
 15
0.0
 25
0.0
 35
0.0
146
0.0
 13
0.0
 23
0.0
 33
0.0
 16
1.0
 26
0.0
 36
0.0
 17
0.0
 27
1.0
 37
0.0
 76
0
330
218
345
0
346
0
  0
LAYOUT
  5
3B2
102
{ACAD_REACTORS
330
1A
102
}
100
AcDbPlotSettings
  1

  2
none_device
  4
ANSI_C_(22.00_x_17.00_Inches)
  6

 40
0.0
 41
0.0
 42
0.0
 43
0.0
 44
558.8
 45
431.8
 46
0.0
 47
0.0
 48
0.0
 49
0.0
140
0.0
141
0.0
142
1.0
143
1.0
 70
0
 72
0
 73
0
 74
0
  7

 75
0
147
1.0
148
0.0
149
0.0
100
AcDbLayout
  1
Layout1
 70
0
 71
1
 10
0.0
 20
0.0
 11
22.0
 21
17.0
 12
0.0
 22
0.0
 32
0.0
 14
0.0
 24
0.0
 34
0.0
 15
0.0
 25
0.0
 35
0.0
146
0.0
 13
0.0
 23
0.0
 33
0.0
 16
1.0
 26
0.0
 36
0.0
 17
0.0
 27
1.0
 37
0.0
 76
0
330
219
345
0
346
0
  0
ENDSEC
  0
EOF
